Song name
# A B C D E F G H I J K L M N O P Q R S T U V W X Y Z

Damn Dirty Apes - In Tents tab

Title: In Tents
Artist: Damn Dirty Apes
Genre: Post Rock
Tabbed: Meng (quipaddler@gmail.com)
Song Download: http://www.noisemonkies.com/

INTRO Bass A vibrato >>fade in 1st bar A
then play PART 2 once

________
 PART 1
e|----------------------------|----------------------------|
B|-9-999--9-999--7-7-7--6-6-6-|-9-999--9-999--7-7-7--6-6-6-|
G|-7-777--7-777--7-7-7--7-7-7-|-7-777--7-777--7-7-7--7-7-7-|
D|-0-000--0-000--0-0-0--0-0-0-|-0-000--0-000--0-0-0--0-0-0-|
A|----------------------------|----------------------------|
E|----------------------------|----------------------------|

G|----------------------------|----------------------------|
D|----------------------------|----------------------------|
A|----------------------------|----------------------------|
E|-5--------------------------|-9--------------------------|



e|----------------------------|----------------------------|
B|-9-999--9-999--7-7-7--6-6-6-|-7-7-7--6-6-6--4-4-4--6-6-6-|
G|-7-777--7-777--7-7-7--7-7-7-|-6-6-6--6-6-6--6-6-6--6-6-6-|
D|-0-000--0-000--0-0-0--0-0-0-|-7-7-7--7-7-7--7-7-7--7-7-7-|
A|----------------------------|----------------------------|
E|----------------------------|----------------------------|

G|----------------------------|----------------------------|
D|----------------------------|----------------------------|
A|----------------------------|----------------------------|
E|-5--------------------------|-0--------------------------|



e|---------------------eleven-|----------------------------|
B|-6-666--7-777--9-999-111111-|-6-666--7-777--9-999-111111-|
G|-7-777--7-777--7-777-121212-|-7-777--7-777--7-777-121212-|
D|-0-000--0-000--0-000-121212-|-0-000--0-000--0-000-121212-|
A|---------------------twelve-|----------------------------|
E|----------------------------|----------------------------|

G|----------------------------|----------------------------|
D|----------------------------|----------------------------|
A|----------------------------|----------------------------|
E|-9--------------------------|-2--------------------------|



e|----------------------------|----------------------------|
B|-9-999--9-999--9-999--9-999-|-9-999--9-999--9-999--9-999-|
G|-7-777--7-777--7-777--7-777-|-7-777--7-777--7-777--7-777-|
D|-0-000--0-000--0-000--0-000-|-0-000--0-000--0-000--0-000-|
A|----------------------------|----------------------------|
E|----------------------------|----------------------------|

G|----------------------------|----------------------------|
D|----------------------------|----------------------------|
A|----------------------------|----------------------------|
E|-5--------------------------|-5--------------------------|

REPEAT PART 1


________
 PART 2
e|----------------------------|----------------------------|
B|-9-999--9-999--9-999--9-999-|-9-999--9-999--9-999--9-999-|
G|-7-777--7-777--7-777--7-777-|-7-777--7-777--7-777--7-777-|
D|-0-000--0-000--0-000--0-000-|-0-000--0-000--0-000--0-000-|
A|-9-999--9-999--9-999--9-999-|-7-777--7-777--7-777--7-777-|
E|----------------------------|----------------------------|

G|----------------------------|----------------------------|
D|----------------------------|----------------------------|
A|----------------------------|----------------------------|
E|-2--------------------------|-0--------------------------|



e|----------------------------|----------------------------|
B|-9-999--9-999--9-999--9-999-|-9-999--9-999--9-999--9-999-|
G|-7-777--7-777--7-777--7-777-|-7-777--7-777--7-777--7-777-|
D|-0-000--0-000--0-000--0-000-|-0-000--0-000--0-000--0-000-|
A|----------------------------|-0-000--0-000--0-000--0-000-| (*TEN -
E|10-TEN-10-TEN-10-TEN-10-TEN-|----------------------------|  press 10 here)

G|----------------------------|----------------------------|
D|----------------------------|----------------------------|
A|----------------------------|----------------------------|
E|-10-------------------------|-5--------------------------|






REPEAT PART 1
REPEAT PART 2 with some distortion KICKS IN


REPEAT PART 1 with this

e|-121212121212---------------|-121212121212---------------|
B|-------------151515141414---|-------------151515141414---|
G|----------------------------|----------------------------|
D|----------------------------|----------------------------|
A|----------------------------|----------------------------|
E|----------------------------|----------------------------|


e|-121212121212---------------|----------------------------|
B|-------------151515141414---|-151515141414121212141414---|
G|----------------------------|----------------------------|
D|----------------------------|----------------------------|
A|----------------------------|----------------------------|
E|----------------------------|----------------------------| 


e|----------------------------|----------------------------|
B|-141414151515171717191919---|-141414151515171717191919---|
G|----------------------------|----------------------------|
D|----------------------------|----------------------------|
A|----------------------------|----------------------------|
E|----------------------------|----------------------------|


e|----------------------------|----------------------------|
B|-17-------------------------|----------------------------|
G|----------------------------|----------------------------|
D|----------------------------|----------------------------|
A|----------------------------|----------------------------|
E|----------------------------|----------------------------|

And REPEAT AGAIN
play together with this
e|-12----12----14^^--12-------|-12----12----14^^--12-------|
B|----------------------------|----------------------------|
G|----------------------------|----------------------------|
D|----------------------------|----------------------------|
A|----------------------------|----------------------------|
E|----------------------------|----------------------------|

e|-14----14----14----16-------|-12----12----12----12-------|
B|----------------------------|----------------------------|
G|----------------------------|----------------------------|
D|----------------------------|----------------------------|
A|----------------------------|----------------------------|
E|----------------------------|----------------------------|

e|----------------------------|------------->>>>>>17>>>>>>-|
B|----------------------------|----------------------------|
G|----------------------------|----------------------------|
D|----------------------------|----------------------------|
A|----------------------------|----------------------------|
E|----------------------------|----------------------------|

e|->>17-ring thru-------------|------------->>>>>>17/19\17-|
B|----------------------------|----------------------------|
G|----------------------------|----------------------------|
D|----------------------------|----------------------------|
A|----------------------------|----------------------------|
E|----------------------------|----------------------------|




* 2 guitars in-line
e|-------------------------------------|-------------------------------------|
B|-------12-14-12----15-14-12-14-12----|-------12-14-12----15-14-12-14-12----|
G|----14----------14----------------14-|----14----------14----------------14-|
D|-14----------------------------------|-14----------------------------------|
A|-------------------------------------|-------------------------------------|
E|-------------------------------------|-------------------------------------|

e|-------------------------------------|-12----12-14----14-16-14-12-12-14-12-|
B|-------------------------------------|-------------------------------------|
G|-------------------------------------|----14-------14----------------------|
D|-------------------------------------|-------------------------------------|
A|-------------------------------------|-------------------------------------|
E|-------------------------------------|-------------------------------------|




e|-------------------------------------|-------------------------------------|
B|-15-14-12-14-12----15-14-12-14-12----|-15-14-12-14-12----15-14-12-14-12----|
G|----------------14----------------14-|----------------14----------------14-|
D|-------------------------------------|-------------------------------------|
A|-------------------------------------|-------------------------------------|
E|-------------------------------------|-------------------------------------|

e|----12-14-16-14-12----12-14-16-14-12-|----12-14-16-14-12----12-14-16-14-12-|
B|-------------------------------------|-------------------------------------|
G|-14----------------14----------------|-14----------------14----------------|
D|-------------------------------------|-------------------------------------|
A|-------------------------------------|-------------------------------------|
E|-------------------------------------|-------------------------------------|




e|-------------------------------------|-------------------------------------|
B|-12/14-12/14\12-14/15-15/17^^^^^^^^^-|-12/14-12/14/15-15/17-15/17^^^^^^^^^-|
G|-------------------------------------|-------------------------------------|
D|-------------------------------------|-------------------------------------|
A|-------------------------------------|-------------------------------------|
E|-------------------------------------|-------------------------------------|

e|-14-12-14-16-14-12-14----------------|-14-12-14-16-14-12-14----------------|
B|----------------------15-14-12-15-14-|----------------------15-14-12-15-14-|
G|-------------------------------------|-------------------------------------|
D|-------------------------------------|-------------------------------------|
A|-------------------------------------|-------------------------------------|
E|-------------------------------------|-------------------------------------|




e|-17^^^^^^^^^^ ring-------------------|-------------------------------------|
B|-------------------------------------|-------------------------------------|
G|-------------------------------------|-------------------------------------|
D|-------------------------------------|-------------------------------------|
A|-------------------------------------|-------------------------------------|
E|-------------------------------------|-------------------------------------|

e|----12-14-16-14-12----12-14-16-14-12-|----12-14-16-14-12----12-14-16-14-12-|
B|-------------------------------------|-------------------------------------|
G|-14----------------14----------------|-14----------------14----------------|
D|-------------------------------------|-------------------------------------|
A|-------------------------------------|-------------------------------------|
E|-------------------------------------|-------------------------------------|





e|- still very noisy what the.. -------|-------------------------------------|
B|-------------------------------------|-------------------------------------|
G|-------------------------------------|-------------------------------------|
D|-------------------------------------|-------------------------------------|
A|-------------------------------------|-------------------------------------|
E|-------------------------------------|-------------------------------------|

e|----14-12-16-14-12-12----------------|----14-12-16-14-12-------------------|
B|----------------------15-14-12-15-14-|-------------------14-15-14-12-15----|
G|-14----------------------------------|-14-------------------------------14-|
D|-------------------------------------|-------------------------------------|
A|-------------------------------------|-------------------------------------|
E|-------------------------------------|-------------------------------------|




e|----------
B|----------
G|-14...----
D|----------
A|----------
E|----------
Tap to rate this tab
# A B C D E F G H I J K L M N O P Q R S T U V W X Y Z