Song name
# A B C D E F G H I J K L M N O P Q R S T U V W X Y Z

Damn Yankees - Bad Reputation tab

E,A,D,G,B,e

---------------------------------------|
---------------------------------------|
-----------------------5--------------.|
--8/7/-5----8-5-8-5----5--------------.|
--8/7/-5----8-5-8-5----3---------------|
--6/5/-3----6-3-6-3--------------------|

--------------------------------------------|
--------------------------------------------|
-------------------------------------------.|
-------------------------------------------.|
--5-2------------------------5-2------------|
-------5--3b---0---3h5p3h5--------5-3b--0---|
Tap to rate this tab
# A B C D E F G H I J K L M N O P Q R S T U V W X Y Z