Song name
# A B C D E F G H I J K L M N O P Q R S T U V W X Y Z

Damn Yankees - Damn Yankees tab

E,A,D,G,B,E

-------------------------------------|
---------3------------------3--------|
------2--2---2---2-------2--2-------.|
------2--0---2---2-------2--0-------.|
------0------0---0-------0-----------|
--3b-----------3b----3b--------------|

-------17~~-17~~-17~~----17~~----------------------------|
---------------------20--------17h20p17------------------|
----------------------------------------17h19p17---------|
-------------------------------------------------19~~~/--|
---------------------------------------------------------|
---------------------------------------------------------|

Notation used:
b-bend
~-vibrato
h-hammer on
p-pull off
/-slide
Tap to rate this tab
 
# A B C D E F G H I J K L M N O P Q R S T U V W X Y Z