Damned - Wait For The Blackout tab

-------------------------------------------------------------------------------
			     WAIT FOR THE BLACKOUT intro - The Damned
-------------------------------------------------------------------------------
Tabbed by:Johnny Sardine

Intro tab 

e|---------------------------------------------------------------------------|
B|---------------------------------------------------------------------------|
G|----------------------------------12 11--12 11-11-12-11--------------------|
D|-11-11-14-12-11-------------------0--0---0--0--0--0--0---------------------|
A|-0--0- 0- 0--0----11-11-14-12-11-------------------------------------------|
E|------------------0--0--0--0--0--------------------------------------------|





************************************

| /   slide up
| \   slide down
| h   hammer-on
| p   pull-off
| ~   vibrato
| +   harmonic
| x   Mute note
| b   Bend
| pb  Pre-bend
| br  Bend release
| pbr Pre-bend release
| brb Bend release bend

************************************
Tap to rate this tab
 
# A B C D E F G H I J K L M N O P Q R S T U V W X Y Z