Song name
# A B C D E F G H I J K L M N O P Q R S T U V W X Y Z

Damned - Neat Neat Neat tab

Basically just play it as fast as it sounds good, apparently they recorded it slower
in the studio and then played it back faster for the singer.

Intro:
| ---5-5-5----5-5-5----5-5-5----5-5-5--- |
| ---5-5-5----5-5-5----5-5-5----5-5-5-7b |
| 7b-------7b-------7b-------7b--------- |
| -------------------------------------- |
| -------------------------------------- |
| -------------------------------------- |

repeat a few times then:

| 5-5-5-5--2-2-2-2 |
| 5-5-5-5--2-2-2-2 |
| ---------------- |
| ---------------- |
| ---------------- |
| ---------------- |

verses:

| -------------------------------------- |
| -------------------------------------- |
| ------------------------------2~-2-2p0 |
| 2---2-2-2--2---2-2-2-2---2-2--2~-2-2p0 |
| 2---2-2-2--2---2-2-2-2---2-2--0~-0-0-- |
| 0h4-4-4-4--0h4-4-4-4-0h4-4-4---------- |

chorus:

| 2-2-2--------------2-2-2------------------ |
| 3-3-3-2-2-2-2-2--2--3-3-3-2-2-2-2-2-2--2-2 |
| 2-2-2-2-2-2-2-2--2--2-2-2-2-2-2-2-2-2--2-2 |
| 0-0-0-2-2-2-2-4--2--0-0-0-2-2-2-2-2-4--2-2 |
| ------0-0-0-0-0--0--------0-0-0-0-0-0--0-0 |
| ------------------------------------------ |

the only reson the 2 spaces are between the 2-2-4 and the normal A is because
it has a bit of a longer gap, but you still play it about a million miles an hour.

Solo: (may not be absolutely correct, but I think it's pretty close)

| ---5-5-5----5-5-5----5-5-5-----5-5-5-5-5-5-5-8-8-8-8 |
| ---5-5-5----5-5-5----5-5-5-7b--5-5-5-5-5-5-5-8-8-8-8 |
| 7b-------7b-------7b-------------------------------- |
| ---------------------------------------------------- |
| ---------------------------------------------------- |
| ---------------------------------------------------- |

| 8-8-8-----8-8-8-----8-8-8-------------8-8-8---------8-8-8-----8-8-8 |
| 8-8-8-----8-8-8-----8-8-8-------------8-8-8---------8-8-8-----8-8-8 |
| ------10b-------10b-------10p9p7--10b-------10b-10b-------10b------ |
| ------------------------------------------------------------------- |
| ------------------------------------------------------------------- |
| ------------------------------------------------------------------- |

| 10-9-7--------------8-8-8--8-5-5-5-5 |
| -------9-7----------8-8-8--8-5-5-5-5 |
| -----------8-7--10b----------------- |
| ------------------------------------ |
| ------------------------------------ |
| ------------------------------------ |

Doesn't really matter if you don't do it in that order, just play it really fast.

Listen to the song for the order
Tap to rate this tab
 
# A B C D E F G H I J K L M N O P Q R S T U V W X Y Z