Song name
# A B C D E F G H I J K L M N O P Q R S T U V W X Y Z

Damned - Machine Gun Etiquette tab

The Damned
Album-Machine Gun Etiquette
Song-Machine Gun Etiquette or(Second Time Around)

Captain
Intro:
E----------------------------|
B----------------------------|
G-----9---8---6--------8--9--|
D-----x---x---x--------x--x--|
A-----7---6---4--------6\-7--|
E----------------------------|


E----------------------------------|
B----------------------------------|
G---7-------7-------7-------7------|
D---7---7---7---7---7---7---7---7--|    X?
A---5---7---5---7---5---7---5---7--|
E-------5-------5-------5-------5--|
the play this so many times, that I lost count?


Verse: captain and algy both play this
E------------------|
B------------------|
G------------------|
D----4-4-4-4-4-4-2-|   X?
A----4-4-4-4-4-4-2-|
E----2-2-2-2-2-2-0-|
From what I can hear from the record,
and live at sheppertons, and various live gigs
The just play this!!!


Breakdown:
E-----------|
B-----------|
G--9--8---6-|
D--x--x---x-|
A--7--6---4-|
E-----------|

Algy Bass breakdown
G--------------|
D--------------|
A--------------|
E--2-2-2-2-2-0-|


or

G---------------|
D---------------|
A---------------|
E-2-0-2-0-2-0-2-|

Algy bass is so low in the
mix I can't hear it!!!
Tap to rate this tab
# A B C D E F G H I J K L M N O P Q R S T U V W X Y Z