Song name
# A B C D E F G H I J K L M N O P Q R S T U V W X Y Z

Damned - Thrill Kill tab

Thrill Kill
My first tab. Any comments email me please. 
(B)-bend 

bass starts: 
|--------------------------------------------------------------|
|--------------------------------------------------------------|
|--------------------------------------------------------------|
|-2-2-2-2-2-2-2-0-7-7-7-7-7-7-7-0-5-5-5-5-5-5-5-0-4-4-4-4-4-4-4| 

guitar:
|--------------------------------| 
|--------------------------------| 
|----9(B)--------------9(B)------| 
|--------------------------------| 
|--------------------------------| 
|--------------------------------| 

chorus:
|----------------------------------------------------------| 
|----------------------------------------------------------| 
|----------------------------------------------------------|
|-10------13-------12-----11-------------------------------| 
|-10-x8---13-x8----12-x8--11-x8----------------------------| 
|-8-------11-------10-----9--------------------------------|

after chorus: 
|---------------------------------------------|
|---------------------------------------------|
|---6----7----8----7--------------------------|
|---------------------------------------------| 
|---------------------------------------------|
|---------------------------------------------|
Tap to rate this tab
# A B C D E F G H I J K L M N O P Q R S T U V W X Y Z