Song name
# A B C D E F G H I J K L M N O P Q R S T U V W X Y Z

Damned - Dr Jeckyll And Mr Hyde tab

Phase 1

E|---------------|---------------|---------------|---------------|
B|-------0-------|-------0-------|-------0-------|-------0-------|
G|-----7-----7---|-----6-----6---|-----5-----5---|-----4-----4---|
D|---5-----5---5-|---4-----4---4-|---3-----3---3-|---2-----2---2-|
A|-7-------------|-6-------------|-5-------------|-4-------------|
E|---------------|---------------|---------------|---------------|


E|---------------|---------------|---------------|---------------|
B|-------3-------|-------0-------|-------0-------|-------0-------|
G|-----0-----0---|-----2-----2---|-----2-----2---|-----2-----2---|
D|---2-----2---2-|---1-----1---1-|---2-----2---2-|---1-----1---1-|
A|-3-------------|-2-------------|-0-------------|-2-------------|
E|---------------|---------------|---------------|---------------|


E|---------------|---------------|
B|-------3-------|-------0-------|
G|-----0-----0---|-----0-----0---|
D|---2-----2---2-|---4-----4---4-|
A|-3-------------|-5-------------|
E|---------------|---------------|


Phase 2

E|---------------|---------------|
B|---------------|---------------|
G|-9----9-9----9-|---------------|
D|-9----9-9----9-|---------------|
A|-7----7-7----7-|---------------|
E|---------------|---------------|

The last chord of phase 2 rings out and phase 1 is then repeated with a bass guitar in the background

Phase 3

E|---------------|---------------|---------------|---------------|
B|---------------|---------------|---------------|---------------|
G|-9----9-9----9-|-4-2----------x|x9----9-9----9-|-4-2----------x|
D|-9----9-9----9-|-4-2----------x|x9----9-9----9-|-4-2----------x|
A|-7----7-7----7-|-2-0----------x|x7----7-7----7-|-2-0----------x|
E|---------------|---------------|---------------|---------------|


E|---------------|---------------|---------------|---------------|
B|---------------|---------------|---------------|---------------|
G|x9----9-9----9-|-4-2-----------|---------------|---------------|
D|x9----9-9----9-|-4-2----------x|x5----x--x--x--|x3----x--x--x--|
A|x7----7-7----7-|-2-0----------x|x5----x--x--x--|x3----x--x--x--|
E|---------------|--------------x|x3----x--x--x--|x1----x--x--x--|


E|---------------|
B|---------------|
G|---------------|
D|x2-------------|
A|x2-------------|
E|x0-------------|

The muted notes in phase 3 are optional, you could instead let the chords ring out until the end of the bar.

The rest of the song is fairly simple to figure out, and is mostly based around A and E chords
Tap to rate this tab
 
# A B C D E F G H I J K L M N O P Q R S T U V W X Y Z