Song name
# A B C D E F G H I J K L M N O P Q R S T U V W X Y Z

Damon Albarn - Lonely Press Play tab

-------------------------------------------------------------------------------
                             LONELY PRESS PLAY - Damon Albarn
-------------------------------------------------------------------------------

Tabbed by: NeonAnimalStash
E-mail: neonanimalstash@gmail.com

I've based this tab on Damon Albarn's performances on Radio 2 and at Sundance, hopefully 
it'll be the same as the upcoming studio version from Everyday Robots!

Reference videos:
Radio 2 (Dermot O'Leary) - https://www.youtube.com/watch?v=qUaFP2rUimQ
Sundance - https://www.youtube.com/watch?v=-5bdrITt8tI


Tuning: Standard

Intro:
e|---------------------------------------------------------------------------|
B|---------------------------------------------------------------------------|
G|----7----7---7--6-6----6--------6-----6--6---4-----------------------------|
D|-5----5--------------5----5--4-----4---------------7--5--4-----------------|
A|---------------------------------------------------------------------------|
E|---------------------------------------------------------------------------|

e|---------------------------------------------------------------------------|
B|---------------------------------------------------------------------------|
G|----7----7---7--6-6-6---6-----6-----6---6----6---6----6---6----------------|
D|-5----5---------------5----------4---------4--------4---------4------------|
A|--------------------------0------------------------------------------------|
E|---------------------------------------------------------------------------|

Verse (similar, but the rhythm becomes more regular):
e|---------------------------------------------------------------------------------|
B|---------------------------------------------------------------------------------|
G|----7----7----7----7----6----6----6----6----6----6----6----6----4----4----4----4-|
D|-5----5----5----5----5----5----5----5----4----4----4----4----4-----4----4----4---|
A|---------------------------------------------------------------------------------|
E|---------------------------------------------------------------------------------|

Play that 4 times, then:
Verse II
e|----------------------------------------------------------------------------------|
B|----------------------------------------------------------------------------------|
G|---4----4----4----4----6----6----6----6----4----4----4----4----3----3----3----3---|
D|----------------------------------------------------------------------------------|
A|-5----5----5----5----7----7----7----7----5----5----5----5----5----5----5----5-----|
E|----------------------------------------------------------------------------------|

Then:

Verse x 6
Verse II x 1
Verse x 6 (Damon adds extra strums for emphasis this time)
Verse II x 1

- NeonAnimalStash

************************************

| /   slide up
| \   slide down
| h   hammer-on
| p   pull-off
| ~   vibrato
| +   harmonic
| x   Mute note
| b   Bend
| pb  Pre-bend
| br  Bend release
| pbr Pre-bend release
| brb Bend release bend

************************************
Tap to rate this tab
 
# A B C D E F G H I J K L M N O P Q R S T U V W X Y Z