Song name
# A B C D E F G H I J K L M N O P Q R S T U V W X Y Z

Damon Albarn - Hollow Ponds tab

Hollow Ponds
by: Damon Albarn
album: Everyday Robots (2014)


Verse:

You can play this...

E|--------------------------------------------------------------------------------|
B|--------------------------------------------------------------------------------|
G|---6-6--6-6--6-6--6-6-5-5--5-5--5-5--5-5-5-5--5-5--5-5--5-5-3-3--3-3--3-3--3-3--|
D|--------------------------------------------------------------------------------|
A|--------------------------------------------------------------------------------|
E|--6-6----6----6----6-5-5----5----5----5-4-4----4----4----4-3-3----3----3----3---|

E|--------------------------------------------------------------------------------|
B|--------------------------------------------------------------------------------|
G|---3-3--3-3--3-3--3-3-3-3--3-3--3-3--3-3-5-5--5-5--5-5--5-5-5-5--5-5--5-5--5-5--|
D|--------------------------------------------------------------------------------|
A|--------------------------------------------------------------------------------|
E|--2-2----2----2----2-2-2----2----2----2-4-4----4----4----4-4-4----4----4----4---|

...or either play this chords...             ...while this sounds...

E|--6----5----4----3----2----2----4----4--|     E|---------------------------------|
B|--6----5----4----3----2----2----4----4--|     B|--11--10--9---8---7---7---9---9--|
G|--6----5----5----3----3----3----5----5--|     G|---------------------------------|
D|--8----7----6----5----4----4----6----6--|     D|---------------------------------|
A|--8----7----6----5----4----4----6----6--|     A|---------------------------------|
E|--6----5----4----3----2----2----4----4--|     E|---------------------------------|

...and Damon sings...

E|--------------|      E|--------------------------|
B|--------------|      B|--------------------------|
G|--------------|      G|--6--5--5--3--3--3--5--5--|
D|--------------|      D|--------------------------|
A|--8----6------|      A|--------------------------|
E|---------9-6--|      E|--------------------------|

Then this

E|-------|-------|-----------|--|------9-|-11-9-|-8-|--|
B|-------|-------|-----------|--|---11---|------|---|--|
G|----10-|-11-10-|-8-10------|--|--------|------|---|--|
D|--8----|-------|------11-8-|--|-8------|------|---|--|
A|-------|-------|-----------|--|--------|------|---|--|
E|-------|-------|-----------|--|--------|------|---|--|

Interlude:

E|---------------------------------|
B|---------------------------------|
G|--10--9--------------------------|
D|--10--9---11--9---8---6---3---2--|
A|--8---7---11--9---8---6---3---2--|
E|----------9---7---6---4---1---0--|

Outro:

E|----------|      E|--20----18--|
B|----------|      B|------------|
G|----------|      G|------------|
D|----------|      D|------------|
A|-----4-6--|      A|------------|
E|--6-------|      E|------------|


So... That is how I think this song goes...
I really hope I have helped you (and really hope this tab is right)
If you have any idea of how to improve this, let me know
Thanks!!!.
Tap to rate this tab
 
# A B C D E F G H I J K L M N O P Q R S T U V W X Y Z