Song name
# A B C D E F G H I J K L M N O P Q R S T U V W X Y Z

Damon Johnson - Pontiac tab

-------------------------------------------------------------------------------
                            Pontiac - Damon Johnson
-------------------------------------------------------------------------------
http://www.damonjohnson.com/

Tabbed by: Shawn Tritz
Email: sptritz@gmail.com

Tuning: down half step

Intro
      x    x          x    x          x    x          x    x
e|-----------------0----0----0-----------------------------------------------|
B|-3----3----3-----3----3----3----------1----1-----1----3----3---------------|
G|-0----0----0-----2----2----2-----2----2----2-----0----0----0---------------|
D|-0----0----0-----0--0-0--0-0-----2----2----2-----2----2----2---------------|
A|-2----2----2---------------------0--0-0--0-0-----3--3-3--3-3---------------|
E|-3--3-3--3-3---------------------------------------------------------------|

Verse
      x    x          x    x          x    x          x    x
e|-----------------0----0----0-----------------------------------------------|
B|-3----3----3-----3----3----3----------1----1-----1----3----3---------------|
G|-0----0----0-----2----2----2-----2----2----2-----0----0----0---------------| x3
D|-0----0----0-----0--0-0--0-0-----2----2----2-----2----2----2---------------|
A|-2----2----2---------------------0--0-0--0-0-----3--3-3--3-3---------------|
E|-3--3-3--3-3---------------------------------------------------------------|

      x    x          x   ~        x    x          x    x
e|-----------------0----0-0--------------------------------------------------|
B|-3----3----3-----3----1h3----------1----1-----1----3----3------------------|
G|-0----0----0-----2----2-2-----2----2----2-----0----0----0------------------|
D|-0----0----0-----0--0-0-0-----2----2----2-----2----2----2------------------|
A|-2----2----2------------------0--0-0--0-0-----3--3-3--3-3------------------|
E|-3--3-3--3-3---------------------------------------------------------------|

Pre-Chorus
      x          x          x       
e|------------3----3----------------3----------------------------------------|
B|-1----1-----3----3-----1----1-----3----------------------------------------|
G|-2----2-----2----2-----2----2-----2----------------------------------------|
D|-2----2-----0--0-0-----2----2-----0----------------------------------------|
A|-0--0-0----------------0--0-0----------------------------------------------|
E|---------------------------------------------------------------------------|

Chorus

e|----3--------2--------0--------3-------------------------------------------|
B|-3--3-----3--3-----1--1-----3--3-------------------------------------------|
G|-0--0-----2--2-----2--2-----0--0-------------------------------------------|  x4
D|-0--------0--0-----2--2-----2--2-------------------------------------------|
A|-2-----------------0--0-----3--3-------------------------------------------|
E|-3-------------------------------------------------------------------------|

e|-----0-----2--2--3--2------------------------------------------------------|
B|--1--1-----3--3--3--3------------------------------------------------------|
G|--2--2-----2--2--2--2------------------------------------------------------|
D|--2--2-----0--0--0--0------------------------------------------------------|
A|--0--0---------------------------------------------------------------------|
E|---------------------------------------------------------------------------|

Pre-Verse 2
      x    x          x   ~        x    x       
e|-----------------0----0-0--------------------------------------------------|
B|-3----3----3-----3----3-3----------1----1---------3--3---------------------|
G|-0----0----0-----2----0h2-----2----2----2---------0--0---------------------|
D|-0----0----0-----0--0-0-0-----2----2----2---------2--2---------------------|
A|-2----2----2------------------0--0-0--0-0-----0-2-3--3---------------------|
E|-3--3-3--3-3---------------------------------------------------------------|

Verse 2
Pre-Chorus
Chorus

Interlude
e|---------------------------------------------------------------3-----------|
B|----0-----1--1--------3---3-3-3---------1--1--1--1---1-1-1-1---3-----------|
G|----0-----0--0--------0---0-0-0---------0--0--2--2---2-2-2-2---0-----------|
D|-2--2-----2--2-----0--0---0-0-0---2-----2--2--2--2---2-2-2-2-0-2-----------|
A|-2--2-----3--3-----2--2---2-2-2-0-2-----3--3--0--0---0-0-0-0-2-3-----------|
E|-0-----------------3--3---3-3-3-2-0----------------------------------------|

Chorus (strum each note once and let ring x2 then being normal Chorus)

Continue into Outro which is the Chorus with slight variations


************************************

| /   slide up
| \   slide down
| h   hammer-on
| p   pull-off
| ~   vibrato
| +   harmonic
| x   Mute note
| b   Bend
| pb  Pre-bend
| br  Bend release
| pbr Pre-bend release
| brb Bend release bend

************************************
Tap to rate this tab
 
# A B C D E F G H I J K L M N O P Q R S T U V W X Y Z