Song name
# A B C D E F G H I J K L M N O P Q R S T U V W X Y Z

Damon Johnson - Release Hard Rain Comin tab

-------------------------------------------------------------------------------
	         Release (Hard Rain Comin') - Damon Johnson
-------------------------------------------------------------------------------
http://www.damonjohnson.com/

Tabbed by: Shawn Tritz
Email: sptritz@gmail.com

Tuning: down half step

Intro and Verse
e|---------0-----------------------------------------------------------------|
B|-----3-----3---3-----------------------------------------------------------|
G|---2-2-2-----2--------0------0-------0-------------------------------------|
D|-0------------------2-2----0-0---0h2---------------------------------------|
A|------------------3------2-------------------------------------------------|
E|---------------------------------------------------------------------------|

                                     ~
e|---------0-----------------------------------------------------------------|
B|-----3-----3---3-----------------------------------------------------------| x2 for intro
G|---2-2-2-----2--------0------0---------------------------------------------| x4 for verse
D|-0------------------2-2----0-0---0h2---------------------------------------|
A|------------------3------2-------------------------------------------------|
E|---------------------------------------------------------------------------|

Pre-Chorus
e|-------------------------------------------------0-------------------------|
B|-------3----3--------3----3------3-3---3----3------3---3-------------------|  x2
G|-------0----0--------0----0------0-0---0----2--------2---------------------|
D|-----2-------------0---------------------------0---------------------------|
A|-2h3------3----3-2------2----0h1-----1----3--------------------------------|
E|---------------------------------------------------------------------------|

Chorus
e|---------------------------------------------------------------------------|
B|-3--3---------3------------------------------------------------------------| x3
G|-0--0-------0-2------------------------------------------------------------|
D|-2--0---0h2---0------------------------------------------------------------|
A|-3--2----------------------------------------------------------------------|
E|---------------------------------------------------------------------------|

e|---------------------------------------------------------------------------|
B|-1-------------------------------------------------------------------------|
G|-2-------------------------------------------------------------------------|
D|-2--2----------------------------------------------------------------------|
A|-0--2----------------------------------------------------------------------|
E|----0----------------------------------------------------------------------|

Verse
Pre-chorus

Guitar 2 during Pre-chorus during the second time
                  ~        ~        ~
e|---------------------------------------------------------------------------|
B|---------------------------------------------------------------------------|
G|---------------------------------------------------------------------------|
D|-7-/10---------\9-------\8-------\7----------------------------------------|
A|---------------------------------------------------------------------------|
E|---------------------------------------------------------------------------|
                  ~        ~            ~
e|---------------------------------------------------------------------------|
B|---------------------------------------------------------------------------|
G|---------------------------------------------------------------------------|
D|-7-/10---------\9-------\8-------/10-/12-----------------------------------|
A|---------------------------------------------------------------------------|
E|---------------------------------------------------------------------------|

Guitar 2 during second chorus
e|-------22-20-19------------------------------------------------------------|
B|-19-20---------------------------------------------------------------------|
G|---------------------------------------------------------------------------|
D|---------------------------------------------------------------------------|
A|---------------------------------------------------------------------------|
E|---------------------------------------------------------------------------|

Extended chorus section with Guitar 2 playing extra chorus parts above

Guitar 2 outro
    ~       ~           ~     ~   ~  ~     ~
e|---------------------------------------------------------------------------|
B|-10---12/13---12--10/12----10--\8-\7----\3---------------------------------|
G|---------------------------------------------------------------------------|
D|---------------------------------------------------------------------------|
A|---------------------------------------------------------------------------|
E|---------------------------------------------------------------------------|


************************************

| /   slide up
| \   slide down
| h   hammer-on
| p   pull-off
| ~   vibrato
| +   harmonic
| x   Mute note
| b   Bend
| pb  Pre-bend
| br  Bend release
| pbr Pre-bend release
| brb Bend release bend

************************************
Tap to rate this tab
 
# A B C D E F G H I J K L M N O P Q R S T U V W X Y Z