Song name
# A B C D E F G H I J K L M N O P Q R S T U V W X Y Z

Damon Wallace - A Pigeon tab

DAMON WALLACE A Pigeon from new self titled album

Tunning: D G D F A D

Hammer On: h
Pull: p
Bend: ^
Palm Mute: PM....
Vibrato: ~


Bridge:

PM.............
|--------------|
|--------------|
|--------------|
|-4-4-4-4-4-4-4|
|-4-4-4-4-4-4-4|
|-2-2-2-2-2-2-2|


Solo:
                             ~~~~~~~~~~~~~~~               
|----------------------------------------------------------|---------|
|-12^------12h14p12----------------------------------------|---------|
|-15^--------------14p12-10--14----12----------------------|-13h15h17| x4
|----------------------------------------------------10-12-|---------|
|------------------------------------------------7-9-------|---------|
|--------------------------------------------4-6-----------|---------|

|---------|       
|-13h15h17|       
|---------| x4    
|---------|       
|---------|       
|---------|    

|---------------|---------|      |----------|
|---------------|---------|      |-13h15h17h|
|---------------|-13h15h17| x4   |----------| x4
|---------10-12-|---------|      |----------|
------7-9-------|---------|      |----------|
|-4-6-----------|---------|      |----------|
Tap to rate this tab
 
# A B C D E F G H I J K L M N O P Q R S T U V W X Y Z