Song name
# A B C D E F G H I J K L M N O P Q R S T U V W X Y Z

Damone - Wasted Years tab

#----------------------------------PLEASE NOTE---------------------------------#
#This file is the author's own work and represents their interpretation of the #
#song. You may only use this file for private study, scholarship, or research. #
#------------------------------------------------------------------------------##



wasted years


Damone


album: out here all night



this song is for paty. i pick this
particular song cuz this band is from boston and well she`s somewhere in there. la 
princesa mariposa


|---3-------3-------3-------3----------3-------------------------------------------------0-|
|-----5-------5-------5-------5----------------------1---------1-------1-------1---------0-|
|--------------------------------------------------0-------------------------------------0-|
|-2----------------------------------------------2----------2--------2-------2-----------2-|
|--------2-------3-------0-------2-----------------------2--------3-------2--------------2-|
|------------------------------------------0--------------------------------------3-2-0--0-|



From the coast of gold          across the seven seas
        |-0-0-0-0-0-0-0-0-0-0-0--2-2-2-2-2-2-2-2-2--|
        |-0-0-0-0-0-0-0-0-0-0-0--3-3-3-3-3-3-3-3-3--|
        |-0-0-0-0-0-0-0-0-0-0-0--2-2-2-2-2-2-2-2-2--|
        |-2-2-2-2-2-2-2-2-2-2-2--0-0-0-0-0-0-0-0-0--|
        |-2-2-2-2-2-2-2-2-2-2-2---------------------|
        |-0-0-0-0-0-0-0-0-0-0-0---------------------|


  Im travellin on        far and wide
|-0-0-0-0-0-0-0-0-0-0-0--2-2-2-2-2-2-2-2-2--|
|-0-0-0-0-0-0-0-0-0-0-0--3-3-3-3-3-3-3-3-3--|
|-0-0-0-0-0-0-0-0-0-0-0--2-2-2-2-2-2-2-2-2--|
|-2-2-2-2-2-2-2-2-2-2-2--0-0-0-0-0-0-0-0-0--|
|-2-2-2-2-2-2-2-2-2-2-2---------------------|
|-0-0-0-0-0-0-0-0-0-0-0---------------------|


  But now it seems Im just a stranger to myself And all the things I sometimes do It 
isnt me
  but someone else
|------------------------0-0-0-0-0-0-0-0-0-0-0--2-2-2-2-2-2-2-2-2-----------------|
|-1-1-1-1-1-1-1-1-1-1-1--0-0-0-0-0-0-0-0-0-0-0--3-3-3-3-3-3-3-3-3--1-1-1-1-1-1-1--|
|-0-0-0-0-0-0-0-0-0-0-0--0-0-0-0-0-0-0-0-0-0-0--2-2-2-2-2-2-2-2-2--0-0-0-0-0-0-0--|
|-2-2-2-2-2-2-2-2-2-2-2--2-2-2-2-2-2-2-2-2-2-2--0-0-0-0-0-0-0-0-0--2-2-2-2-2-2-2--|
|-3-3-3-3-3-3-3-3-3-3-3--2-2-2-2-2-2-2-2-2-2-2---------------------3-3-3-3-3-3-3--|
|------------------------0-0-0-0-0-0-0-0-0-0-0------------------------------------|

  I close my eyes and    think of home
|-0-0-0-0-0-0-0-0-0-0-0--2-2-2-2-2-2-2-2-2--|
|-0-0-0-0-0-0-0-0-0-0-0--3-3-3-3-3-3-3-3-3--|
|-0-0-0-0-0-0-0-0-0-0-0--2-2-2-2-2-2-2-2-2--|
|-2-2-2-2-2-2-2-2-2-2-2--0-0-0-0-0-0-0-0-0--|
|-2-2-2-2-2-2-2-2-2-2-2---------------------|
|-0-0-0-0-0-0-0-0-0-0-0---------------------|

   Another city goes by    in the night
|-0-0-0-0-0-0-0-0-0-0-0--2-2-2-2-2-2-2-2-2--|
|-0-0-0-0-0-0-0-0-0-0-0--3-3-3-3-3-3-3-3-3--|
|-0-0-0-0-0-0-0-0-0-0-0--2-2-2-2-2-2-2-2-2--|
|-2-2-2-2-2-2-2-2-2-2-2--0-0-0-0-0-0-0-0-0--|
|-2-2-2-2-2-2-2-2-2-2-2---------------------|
|-0-0-0-0-0-0-0-0-0-0-0---------------------|


  Aint it funny how it is, You never miss it til its gone away And my heart is lying there
  And will de til my dying day
|------------------------0-0-0-0-0-0-0-0-0-0-0--2-2-2-2-2-2-2-2-2-----------------|
|-1-1-1-1-1-1-1-1-1-1-1--0-0-0-0-0-0-0-0-0-0-0--3-3-3-3-3-3-3-3-3--1-1-1-1-1-1-1--|
|-0-0-0-0-0-0-0-0-0-0-0--0-0-0-0-0-0-0-0-0-0-0--2-2-2-2-2-2-2-2-2--0-0-0-0-0-0-0--|
|-2-2-2-2-2-2-2-2-2-2-2--2-2-2-2-2-2-2-2-2-2-2--0-0-0-0-0-0-0-0-0--2-2-2-2-2-2-2--|
|-3-3-3-3-3-3-3-3-3-3-3--2-2-2-2-2-2-2-2-2-2-2---------------------3-3-3-3-3-3-3--|
|------------------------0-0-0-0-0-0-0-0-0-0-0------------------------------------|


  So                            understand  Dont waste your time always Searching for those
|-3-3-3-3-3-3-3-3-3----------------------2-2-2-2-2-2----------------0-0-0-0-0-0--2-2-2-2-2-|
|-3-3-3-3-3-3-3-3-3--1-1-1-1-1-1--2-2-2--3-3-3-3-3-3--1-1-1--2-2-2--0-0-0-0-0-0--3-3-3-3-3-|
|-0-0-0-0-0-0-0-0-0--0-0-0-0-0-0--2-2-2--2-2-2-2-2-2--0-0-0--2-2-2--0-0-0-0-0-0--2-2-2-2-2-|
|-0-0-0-0-0-0-0-0-0--2-2-2-2-2-2--2-2-2--0-0-0-0-0-0--2-2-2--2-2-2--2-2-2-2-2-2--0-0-0-0-0-|
|-2-2-2-2-2-2-2-2-2--3-3-3-3-3-3--0-0-0---------------3-3-3--0-0-0--2-2-2-2-2-2------------|
|-3-3-3-3-3-3-3-3-3-------------------------------------------------0-0-0-0-0-0------------|

 wasted years
|------------------|
|-1-1-1-1-1-1-1-1--|
|-0-0-0-0-0-0-0-0--|
|-2-2-2-2-2-2-2-2--|
|-3-3-3-3-3-3-3-3--|
|------------------|


Too much time on my hands, I got you on my mind
|-0-0-0-0-0-0-0-0-0-0-0--2-2-2-2-2-2-2-2-2--|
|-0-0-0-0-0-0-0-0-0-0-0--3-3-3-3-3-3-3-3-3--|
|-0-0-0-0-0-0-0-0-0-0-0--2-2-2-2-2-2-2-2-2--|
|-2-2-2-2-2-2-2-2-2-2-2--0-0-0-0-0-0-0-0-0--|
|-2-2-2-2-2-2-2-2-2-2-2---------------------|
|-0-0-0-0-0-0-0-0-0-0-0---------------------|

  Cant easy this pain so easily
|-0-0-0-0-0-0-0-0-0-0-0--2-2-2-2-2-2-2-2-2--|
|-0-0-0-0-0-0-0-0-0-0-0--3-3-3-3-3-3-3-3-3--|
|-0-0-0-0-0-0-0-0-0-0-0--2-2-2-2-2-2-2-2-2--|
|-2-2-2-2-2-2-2-2-2-2-2--0-0-0-0-0-0-0-0-0--|
|-2-2-2-2-2-2-2-2-2-2-2---------------------|
|-0-0-0-0-0-0-0-0-0-0-0---------------------|

 When you cant find the words to say Its hard to make it through another day
 And it just makes me wanna cry And throw my hands up to the sky
|------------------------0-0-0-0-0-0-0-0-0-0-0--2-2-2-2-2-2-2-2-2-----------------|
|-1-1-1-1-1-1-1-1-1-1-1--0-0-0-0-0-0-0-0-0-0-0--3-3-3-3-3-3-3-3-3--1-1-1-1-1-1-1--|
|-0-0-0-0-0-0-0-0-0-0-0--0-0-0-0-0-0-0-0-0-0-0--2-2-2-2-2-2-2-2-2--0-0-0-0-0-0-0--|
|-2-2-2-2-2-2-2-2-2-2-2--2-2-2-2-2-2-2-2-2-2-2--0-0-0-0-0-0-0-0-0--2-2-2-2-2-2-2--|
|-3-3-3-3-3-3-3-3-3-3-3--2-2-2-2-2-2-2-2-2-2-2---------------------3-3-3-3-3-3-3--|
|------------------------0-0-0-0-0-0-0-0-0-0-0------------------------------------|



  So                            understand  Dont waste your time always Searching for those
|-3-3-3-3-3-3-3-3-3----------------------2-2-2-2-2-2----------------0-0-0-0-0-0--2-2-2-2-2-|
|-3-3-3-3-3-3-3-3-3--1-1-1-1-1-1--2-2-2--3-3-3-3-3-3--1-1-1--2-2-2--0-0-0-0-0-0--3-3-3-3-3-|
|-0-0-0-0-0-0-0-0-0--0-0-0-0-0-0--2-2-2--2-2-2-2-2-2--0-0-0--2-2-2--0-0-0-0-0-0--2-2-2-2-2-|
|-0-0-0-0-0-0-0-0-0--2-2-2-2-2-2--2-2-2--0-0-0-0-0-0--2-2-2--2-2-2--2-2-2-2-2-2--0-0-0-0-0-|
|-2-2-2-2-2-2-2-2-2--3-3-3-3-3-3--0-0-0---------------3-3-3--0-0-0--2-2-2-2-2-2------------|
|-3-3-3-3-3-3-3-3-3-------------------------------------------------0-0-0-0-0-0------------|

 wasted years
|------------------|
|-1-1-1-1-1-1-1-1--|
|-0-0-0-0-0-0-0-0--|
|-2-2-2-2-2-2-2-2--|
|-3-3-3-3-3-3-3-3--|
|------------------|

  Face up...                      make your stand          And realise youre living in the
|-3-3-3-3-3-3-3-3-3----------------------2-2-2-2-2-2----------------0-0-0-0-0-0--2-2-2-2-2-|
|-3-3-3-3-3-3-3-3-3--1-1-1-1-1-1--2-2-2--3-3-3-3-3-3--1-1-1--2-2-2--0-0-0-0-0-0--3-3-3-3-3-|
|-0-0-0-0-0-0-0-0-0--0-0-0-0-0-0--2-2-2--2-2-2-2-2-2--0-0-0--2-2-2--0-0-0-0-0-0--2-2-2-2-2-|
|-0-0-0-0-0-0-0-0-0--2-2-2-2-2-2--2-2-2--0-0-0-0-0-0--2-2-2--2-2-2--2-2-2-2-2-2--0-0-0-0-0-|
|-2-2-2-2-2-2-2-2-2--3-3-3-3-3-3--0-0-0---------------3-3-3--0-0-0--2-2-2-2-2-2------------|
|-3-3-3-3-3-3-3-3-3-------------------------------------------------0-0-0-0-0-0------------|

  golden years
|------------------|
|-1-1-1-1-1-1-1-1--|
|-0-0-0-0-0-0-0-0--|
|-2-2-2-2-2-2-2-2--|
|-3-3-3-3-3-3-3-3--|
|------------------|


|-12-0-0-0-0-0-0-7-0-0-0-0-8-0-0-0-0-5-0-0-0-0-7-0-0-0-3-0-0-0-5-0-0-0-2-0-0-0-3-0-0-0-0-|
|----------------------------------------------------------------------------------------|
|----------------------------------------------------------------------------------------|
|----------------------------------------------------------------------------------------|
|----------------------------------------------------------------------------------------|
|----------------------------------------------------------------------------------------|

|-5-0-0-0-2-3--|
|--------------|
|--------------|
|--------------|
|--------------|
|--------------|

|-12-0-0-0-0-0-0-7-0-0-0-0-8-0-0-0-0-5-0-0-0-0-7-0-0-0-3-0-0-0-5-0-0-0-2-0-0-0-3-0-0-0-0-|
|----------------------------------------------------------------------------------------|
|----------------------------------------------------------------------------------------|
|----------------------------------------------------------------------------------------|
|----------------------------------------------------------------------------------------|
|----------------------------------------------------------------------------------------|

|-5-0-0-0-2-3--|
|--------------|
|--------------|
|--------------|
|--------------|
|--------------|

|-12-0-0-0-0-0-0-7-0-0-0-0-8-0-0-0-0-5-0-0-0-0-7-0-0-0-3-0-0-0-5-0-0-0-2-0-0-0-3-0-0-0-0-|
|----------------------------------------------------------------------------------------|
|----------------------------------------------------------------------------------------|
|----------------------------------------------------------------------------------------|
|----------------------------------------------------------------------------------------|
|----------------------------------------------------------------------------------------|

|-5-0-0-0-2-3--|
|--------------|
|--------------|
|--------------|
|--------------|
|--------------|

|-12-0-0-0-0-0-0-7-0-0-0-0-8-0-0-0-0-5-0-0-0-0-7-0-0-0-3-0-0-0-5-0-0-0-2-0-0-0-3-0-0-0-0-|
|----------------------------------------------------------------------------------------|
|----------------------------------------------------------------------------------------|
|----------------------------------------------------------------------------------------|
|----------------------------------------------------------------------------------------|
|----------------------------------------------------------------------------------------|

|-5-0-0-0-2-3--|
|--------------|
|--------------|
|--------------|
|--------------|
|--------------|

  So                            understand  Dont waste your time always Searching for those
|-3-3-3-3-3-3-3-3-3----------------------2-2-2-2-2-2----------------0-0-0-0-0-0--2-2-2-2-2-|
|-3-3-3-3-3-3-3-3-3--1-1-1-1-1-1--2-2-2--3-3-3-3-3-3--1-1-1--2-2-2--0-0-0-0-0-0--3-3-3-3-3-|
|-0-0-0-0-0-0-0-0-0--0-0-0-0-0-0--2-2-2--2-2-2-2-2-2--0-0-0--2-2-2--0-0-0-0-0-0--2-2-2-2-2-|
|-0-0-0-0-0-0-0-0-0--2-2-2-2-2-2--2-2-2--0-0-0-0-0-0--2-2-2--2-2-2--2-2-2-2-2-2--0-0-0-0-0-|
|-2-2-2-2-2-2-2-2-2--3-3-3-3-3-3--0-0-0---------------3-3-3--0-0-0--2-2-2-2-2-2------------|
|-3-3-3-3-3-3-3-3-3-------------------------------------------------0-0-0-0-0-0------------|

 wasted years
|------------------|
|-1-1-1-1-1-1-1-1--|
|-0-0-0-0-0-0-0-0--|
|-2-2-2-2-2-2-2-2--|
|-3-3-3-3-3-3-3-3--|
|------------------|

  Face up...                      make your stand           And realise youre living in the
|-3-3-3-3-3-3-3-3-3----------------------2-2-2-2-2-2----------------0-0-0-0-0-0--2-2-2-2-2-|
|-3-3-3-3-3-3-3-3-3--1-1-1-1-1-1--2-2-2--3-3-3-3-3-3--1-1-1--2-2-2--0-0-0-0-0-0--3-3-3-3-3-|
|-0-0-0-0-0-0-0-0-0--0-0-0-0-0-0--2-2-2--2-2-2-2-2-2--0-0-0--2-2-2--0-0-0-0-0-0--2-2-2-2-2-|
|-0-0-0-0-0-0-0-0-0--2-2-2-2-2-2--2-2-2--0-0-0-0-0-0--2-2-2--2-2-2--2-2-2-2-2-2--0-0-0-0-0-|
|-2-2-2-2-2-2-2-2-2--3-3-3-3-3-3--0-0-0---------------3-3-3--0-0-0--2-2-2-2-2-2------------|
|-3-3-3-3-3-3-3-3-3-------------------------------------------------0-0-0-0-0-0------------|

  golden years
|------------------|
|-1-1-1-1-1-1-1-1--|
|-0-0-0-0-0-0-0-0--|
|-2-2-2-2-2-2-2-2--|
|-3-3-3-3-3-3-3-3--|
|------------------|

|-12-0-0-0-0-0-0-7-0-0-0-0-8-0-0-0-0-5-0-0-0-0-7-0-0-0-3-0-0-0-5-0-0-0-2-0-0-0-3-0-0-0-0-|
|----------------------------------------------------------------------------------------|
|----------------------------------------------------------------------------------------|
|----------------------------------------------------------------------------------------|
|----------------------------------------------------------------------------------------|
|----------------------------------------------------------------------------------------|

|-5-0-0-0-2-3--|
|--------------|
|--------------|
|--------------|
|--------------|
|--------------|

|-12-0-0-0-0-0-0-7-0-0-0-0-8-0-0-0-0-5-0-0-0-0-7-0-0-0-3-0-0-0-5-0-0-0-2-0-0-0-3-0-0-0-0-|
|----------------------------------------------------------------------------------------|
|----------------------------------------------------------------------------------------|
|----------------------------------------------------------------------------------------|
|----------------------------------------------------------------------------------------|
|----------------------------------------------------------------------------------------|

|-5-0-0-0-2-3-0-0-12-|
|--------------------|
|--------------------|
|--------------------|
|--------------------|
|--------------------|


hillo son mex

26/05/06
Tap to rate this tab
 
# A B C D E F G H I J K L M N O P Q R S T U V W X Y Z