Song name
# A B C D E F G H I J K L M N O P Q R S T U V W X Y Z

Damone - Out Here All Night tab

k I was in a hury the first time I wrote this tab lol yea okay I forgot the e string.. 
hey I fixed it.. sorry people


e|-----------------------------------------------------|
B|-----------------------------------------------------|
G|-----------------------------------------------------|
D|-----------------------------------------10---10-----|  (main riff)
A|-8---10------7----8------8---10------7/8----8--------|
D|---00---0000---00---0000---00---0000-----------------|
    **   ****   **   ****   **   ****

e|--------------------------------------------------|
B|--------------------------------------------------|
G|--------------------------------------------------|
D|--8--8--8--8--8--8--8--8--8--8--8--8--8--8--7--7--|
A|--8--8--8--8--8--8--8--8--8--8--8--8--8--8--7--7--|
D|--8--8--8--8--8--8--8--8--8--8--8--8--8--8--7--7--|

e|--------------------------------------------------|
E|--------------------------------------------------|
G|--------------------------------------------------|
D|--5--5--5--5--5--5--5--5--5--5--5--5--5--5--7--7--|
A|--5--5--5--5--5--5--5--5--5--5--5--5--5--5--7--7--|
D|--5--5--5--5--5--5--5--5--5--5--5--5--5--5--7--7--|


e|-------------------------|
B|-------------------------|
G|-------------------------|
D|--3~p--------------------|
A|------3~p----------------|
D|-----------6/5--3~p------|


e|----------------------------------------------|
B|----------------------------------------------|
G|----------------------------------------------|
D|--3~p--0---5~p--0-0-0---2~p--0---3~p--0--0--0-|
A|--3~p--0---5~p--0-0-0---2~p--0---3~p--0--0--0-|
D|--3~p--0---5~p--0-0-0---2~p--0---3~p--0--0--0-|


e|---------------------------------------|
B|---------------------------------------|
G|---------------------------------------|
D|--3~p--0---5~p--0-0-0---2----3~p--3~p--|
A|--3~p--0---5~p--0-0-0---2----3~p--3~p--|
D|--3~p--0---5~p--0-0-0---2----3~p--3~p--|


this isnt the order but you can figure it out

enjoy.
Tap to rate this tab
# A B C D E F G H I J K L M N O P Q R S T U V W X Y Z