Song name
# A B C D E F G H I J K L M N O P Q R S T U V W X Y Z

Damone - When You Live tab

Ok,this is a Really simple song.

Lead guitar
Intro/Verse (x7)
e|--0---0-----|
b|----3--2----|
g|-----2--3---|
d|-0----------|
a|------------|
e|------------|

chorus(roughly 10 times,with electric fills in between)
e|--0---0-----|
b|----3--2----|
g|-----2--3---|rhythm guitar
d|-0----------|
a|------------|
e|------------|
thats pretty much the main riff,but there are a few fills in the verse that i havent 
out yet. any questions its lyrixgurl711@gmail.com

oh yea,its an acoustic song forthe most part,and the acoustic is lead during the 
then its rhythm in the chorus,as not to confuse people.
Tap to rate this tab
# A B C D E F G H I J K L M N O P Q R S T U V W X Y Z