Song name
# A B C D E F G H I J K L M N O P Q R S T U V W X Y Z

Damone - Up To You tab

Created by falcon4ever
comments: ultimateguitar 'at' falcon4ever.com

General information:
====================
Artist: Damone
Song: Up to you
Album: From The Attic
Standard tuning (E A D G B e)

Part A1,A2,B1,B2 should be played with palmmute, 
the only exception it the (powerchord) part.

Since they Rhythm of the song is pretty easy you should be 
able to figure out when and how much you need to strum.

The tabs:
=========

Part  A1        2x      Part  B1
You are who's...        I would... (00:14)   cuz you... (00:21)
e|----------------|     e|----------------|----------------|
B|----------------|     B|----------------|----------------|
G|----------------|     G|---------7------|---------7--9---|
D|---7-----4------|     D|---7--9--5--7---|---7--9--5--7---|
A|---5--7--2--5---|     A|---5--7-----5---|---5--7---------|
E|------5-----3---|     E|----------------|----------------|

Part  A2
I can be... (00:27)                (powerchord)
e|----------------|----------------|----------|
B|----------------|----------------|----------|
G|----------------|----------------|----------|
D|---7-----4------|---7-----4------|---5--5---|
A|---5--7--2--5---|---5--7--2--5---|---5--5---|
E|------5-----3---|------5-----3---|---3--3---|

Part  B2
I don't... (00:41)(powerchord)               (just strum until next part starts)
e|----------------|----------|----------------|-------|
B|----------------|----------|----------------|-------|
G|---------7------|----------|---------7--9---|---9---|
D|---7--9--5--7---|---5--5---|---7--9--5--7---|---7---|
A|---5--7-----5---|---5--5---|---5--7---------|-------|
E|----------------|---3--3---|----------------|-------|

Powerchords A              Powerchords B
So maybe... (00:54) 4x     (1:08)
e|--------------------|  e|-------------------|-------------------|
B|--------------------|  B|-------------------|-------------------|
G|------7-------------|  G|-------------------|-------------------|
D|---9--7--7--5-------|  D|---5--4--9--7--5---|---5--7--9--7--5~--|
A|---9--5--7--5-------|  A|---5--4--9--7--5---|---5--7--9--7--5~--|
E|---7-----5--3-------|  E|---3--2--7--5--3---|---3--5--7--5--3~--|

Part  A2 (01:27)
Part  B1 (01:40)
Powerchords A  (01:54)
Powerchords B  (02:07)

Solo (2:26)
(Powerchords)       4x  (Palmmute)
e|--------------------|
B|--------------------|
G|---7----------------|
D|---7--7--9--5-------|
A|---5--7--9--5-------|
E|------5--7--3-------|

Powerchords A  (02:53)
Powerchords B  (03:06) (fade out)
Tap to rate this tab
# A B C D E F G H I J K L M N O P Q R S T U V W X Y Z