Damone - Frustrated Unnoticed tab

Frustrated Unnoticed
Damone
From the Attic (2002)

Drop D

* = Palm mute
/ = Slide up
\ = Slide down
(b) = Bend
 R= Ring

Intro/Verse  1
e|-------------------------------|
B|-------------------------------|
G|-------------------------------|
D|------------------------7-7-7-7|
A|5-5-5-5-5-5-5-5-7-7-7-7-5-5-5-5|
E|5-5-5-5-5-5-5-5-7-7-7-7--------|
  * * * * * * * * * * * * * * * *
Im rockin a BMX bike,

e|-------------------------------|
B|-------------------------------|
G|-------------------------------|
D|------------------------7-7-7-7|
A|5-5-5-5-5-5-5-5-7-7-7-7-5-5-5-5|
E|5-5-5-5-5-5-5-5-7-7-7-7--------|
  * * * * * * * * * * * * * * * *
Im rockin a muscle head car,

e|-------------------------------|
B|-------------------------------|
G|-------------------------------|
D|------------------------7-7-7-7|
A|5-5-5-5-5-5-5-5-7-7-7-7-5-5-5-5|
E|5-5-5-5-5-5-5-5-7-7-7-7--------|
  * * * * * * * * * * * * * * * *
I freestyle where ever I go,

e|-------------------------------|
B|-------------------------------|
G|-------------------------------|
D|------------------------7-7-7-7|
A|5-5-5-5-5-5-5-5-7-7-7-7-5-5-5-5|
E|5-5-5-5-5-5-5-5-7-7-7-7--------|
  * * * * * * * * * * * * * * * *
I dont cry whenever I fall.
Pre-Chorus
e|----------------------------------|
B|----------------------------------|
G|----------------------------------|
D|5555-7777-9999-7777-5555-7777-9999|
A|5555-7777-9999-7777-5555-7777-9999|
E|5555-7777-9999-7777-5555-7777-9999|
    And I can run as fast as anyone I know,

e|----------------------------------|
B|----------------------------------|
G|----------------------------------|
D|5555-7777-9999-7777-5555-7777-9999|
A|5555-7777-9999-7777-5555-7777-9999|
E|5555-7777-9999-7777-5555-7777-9999|
My heart is strong, Ill be the one who takes control.

Chorus
e|--------------------------------------|
B|--------------------------------------|
G|--------------------------------------|
D|5555-7777-9999-7777-5555-7777-99999999|
A|5555-7777-9999-7777-5555-7777-99999999|
E|5555-7777-9999-7777-5555-7777-99999999|
 But its No Whaoaoh, No Whaoaoh, No Whaoaoh Oh

e|----------------------------------------------|
B|----------------------------------------------|
G|----------------------------------------------|
D|5555-7777-9999-7777-5555-7777-1212121212121212|
A|5555-7777-9999-7777-5555-7777-1212121212121212|
E|5555-7777-9999-7777-5555-7777-1212121212121212|
 No Whaoaoh, No Whaoaoh, No Whaoaoh, Whoa

Verse 2
e|-------------------------------|
B|-------------------------------|
G|-------------------------------|
D|------------------------7-7-7-7|
A|5-5-5-5-5-5-5-5-7-7-7-7-5-5-5-5|
E|5-5-5-5-5-5-5-5-7-7-7-7--------|
  * * * * * * * * * * * * * * * *
Im workin at really cool jobs,

e|-------------------------------|
B|-------------------------------|
G|-------------------------------|
D|------------------------7-7-7-7|
A|5-5-5-5-5-5-5-5-7-7-7-7-5-5-5-5|
E|5-5-5-5-5-5-5-5-7-7-7-7--------|
  * * * * * * * * * * * * * * * *
Im painting, and I wash cars.

e|-------------------------------|
B|-------------------------------|
G|-------------------------------|
D|------------------------7-7-7-7|
A|5-5-5-5-5-5-5-5-7-7-7-7-5-5-5-5|
E|5-5-5-5-5-5-5-5-7-7-7-7--------|
  * * * * * * * * * * * * * * * *  I m cleaning, I keep my self strong (not sure
this, but thats what it sounds like)


e|-------------------------------|
B|-------------------------------|
G|-------------------------------|
D|------------------------7-7-7-7|
A|5-5-5-5-5-5-5-5-7-7-7-7-5-5-5-5|
E|5-5-5-5-5-5-5-5-7-7-7-7--------|
  * * * * * * * * * * * * * * * *
Ill play you a rock and roll song.

Pre-Chorus
e|----------------------------------|
B|----------------------------------|
G|----------------------------------|
D|5555-7777-9999-7777-5555-7777-9999|
A|5555-7777-9999-7777-5555-7777-9999|
E|5555-7777-9999-7777-5555-7777-9999|
    And I can run as fast as anyone I know,

e|----------------------------------|
B|----------------------------------|
G|----------------------------------|
D|5555-7777-9999-7777-5555-7777-9999|
A|5555-7777-9999-7777-5555-7777-9999|
E|5555-7777-9999-7777-5555-7777-9999|
My heart is strong, Ill be the one who takes control.

Chorus
e|--------------------------------------|
B|--------------------------------------|
G|--------------------------------------|
D|5555-7777-9999-7777-5555-7777-99999999|
A|5555-7777-9999-7777-5555-7777-99999999|
E|5555-7777-9999-7777-5555-7777-99999999|
 But its No Whaoaoh, No Whaoaoh, No Whaoaoh Oh

e|----------------------------------------------|
B|----------------------------------------------|
G|----------------------------------------------|
D|5555-7777-9999-7777-5555-7777-1212121212121212|
A|5555-7777-9999-7777-5555-7777-1212121212121212|
E|5555-7777-9999-7777-5555-7777-1212121212121212|
 No Whaoaoh, No Whaoaoh, No Whaoaoh, Whoa


Bridge (4x)
e|-----------------------------------|
B|-----------------------------------|
G|-----------------------------------|
D|------------------------7-7-7-7----|
A|5-5-5-5-5-5-5-5-7-7-7-7-5-5-5-5----|
E|5-5-5-5-5-5-5-5-7-7-7-7------------|
  * * * * * * * * * * * * * * * *
Solo
E|------------------------------------------------------------------10-------12----|
B|7-7-7-7-7-5-------------------------------------12-12-10-12-12-10--------12p1012-|
G|--------------7------------------------------------------------------------------|
D|----------------7-9-7---------7-9-7-10-10/9-7------------------------------------|
A|----------------------7-5-7-5----------------------------------------------------|
E|---------------------------------------------------------------------------------|

-----------------------|
12-12-14-14-14(b)-15---|
-----------------------|
-----------------------|
-----------------------|
-----------------------|

Pre-Chorus
e|----------------------------------|
B|----------------------------------|
G|----------------------------------|
D|5555-7777-9999-7777-5555-7777-9999|
A|5555-7777-9999-7777-5555-7777-9999|
E|5555-7777-9999-7777-5555-7777-9999|
    And I can run as fast as anyone I know,

e|----------------------------------|
B|----------------------------------|
G|----------------------------------|
D|5555-7777-9999-7777-5555-7777-9999|
A|5555-7777-9999-7777-5555-7777-9999|
E|5555-7777-9999-7777-5555-7777-9999|
Im not the one he seems to want, so Ill let him know

Chorus
e|--------------------------------------|
B|--------------------------------------|
G|--------------------------------------|
D|5555-7777-9999-7777-5555-7777-99999999|
A|5555-7777-9999-7777-5555-7777-99999999|
E|5555-7777-9999-7777-5555-7777-99999999|
 That its No Whaoaoh, No Whaoaoh, No Whaoaoh Oh

e|----------------------------------------------|
B|----------------------------------------------|
G|----------------------------------------------|
D|5555-7777-9999-7777-5555-7777-1212121212121212|
A|5555-7777-9999-7777-5555-7777-1212121212121212|
E|5555-7777-9999-7777-5555-7777-1212121212121212|
 No Whaoaoh, No Whaoaoh, No Whaoaoh, Whoa


Chorus
e|--------------------------------------|
B|--------------------------------------|
G|--------------------------------------|
D|5555-7777-9999-7777-5555-7777-99999999|
A|5555-7777-9999-7777-5555-7777-99999999|
E|5555-7777-9999-7777-5555-7777-99999999|
 That its No Whaoaoh, No Whaoaoh, No Whaoaoh Oh

e|----------------------------------------------|
B|----------------------------------------------|
G|----------------------------------------------|
D|5555-7777-9999-7777-5555-7777-1212121212121212|
A|5555-7777-9999-7777-5555-7777-1212121212121212|
E|5555-7777-9999-7777-5555-7777-1212121212121212|
 No Whaoaoh, No Whaoaoh, No Whaoaoh, Whoa

Chorus
e|--------------------------------------|
B|--------------------------------------|
G|--------------------------------------|
D|5555-7777-9999-7777-5555-7777-99999999|
A|5555-7777-9999-7777-5555-7777-99999999|
E|5555-7777-9999-7777-5555-7777-99999999|
 That its No Whaoaoh, No Whaoaoh, No Whaoaoh Oh

e|----------------------------------------------|
B|----------------------------------------------|
G|----------------------------------------------|
D|5555-7777-9999-7777-5555-7777-1212121212121212|
A|5555-7777-9999-7777-5555-7777-1212121212121212|
E|5555-7777-9999-7777-5555-7777-1212121212121212|
 No Whaoaoh, No Whaoaoh, No Whaoaoh, Whoa

Outro
e|---------------------------------------------|
B|---------------------------------------------|
G|---------------------------------------------|
D|---------------------------------------------|
A|5555-7777-9999-7777-5555-7777-9r-------------|
E----------------------------------------------|

e|-------------------------------|
B|-------------------------------|
G|7-7--9-11-11-9-7-7-9-11r-------|
D|5-5--7-9--9---7-5-5-7--9r------|
A|-------------------------------|
E|-------------------------------|

E|-------------------|
B|-------------------|
G|-------------------|
D|55-7-99-7-555\4-2-4|
A|-------------------|
E|-------------------|

End

Message me for comments, or if I screwed up any, Ill gladly edit the tab, if the edit 
correct.
Tap to rate this tab
 
# A B C D E F G H I J K L M N O P Q R S T U V W X Y Z