Song name
# A B C D E F G H I J K L M N O P Q R S T U V W X Y Z

Dan Auerbach - The Prowl tab

Hi there, this is my first tab, a song by dan auerbach.
Have fun with it!

Dan Auerbach - The Prowl

Riff I (7x)

E---------------------------------------------|
B---------------------------------------------|
G----------------------------3-------3--------|
D------------------------5-5---5-3-5---5-5----|
A------1-3-3/4-3/4-3-1---5--------------------|
E----3-----------------3-3--------------------|

Riff II

E--------------------------------------------|
B--------------------------------------------|
G--------------------------------------------|
D--------------------------------------------|
A------1-3-3/4-3/4-3-1-5---------------------|
E----3---------------------------------------|

Riff I

Riff III

E--------------------------------------------|
B--------------------------------------------|
G--------------------------------------------|
D--------------------------------------------|
A------1-3-3/4-3/4-3-1-3-1---1-3---1-3-------|
E----3---------------------3-----3-----------|

Riff IV

E-------------------------------------|
B-------------------------------------|
G-------------------------------------|
D-------------------------------------|
A------1-3-3/4-3/4-3-1----------------|
E----3-----------------3-3/6-6/8-6----|


Riff V (3x)

E-------------------|
B-------------------|
G-------------------|
D-------------------|
A-------------------|
E----3-3/6-6/8-6----|

Riff I (3x)

Riff II

Riff I

Riff III

Riff I

Riff IV

Riff V

Riff VI (ca. 3x)

E-----------------------------------------|
B-----------------------------------------|
G-----------------------------------------|
D-----------------------------------------|
A----3-3/6-6/8-1-(2x)---------------------|
E---------------------3-3/6-6/8-6-(2x)----|

And that's it.
Tap to rate this tab
 
# A B C D E F G H I J K L M N O P Q R S T U V W X Y Z