Dan Auerbach - Goin Home tab

---2----5------------2------------------0----2-------------------------------------------|
---3---------------------------3----3--------------3------------1------0--------------1--|
---2-------------2-------------2-------------------0------0------------0---------0-------|
---0-----------------------------------------------------0---------------------0---------|
---0-------------------------------------------------------------------------------------|
---0---------0-----------------0-------------------5-------------------5-----------------|


--------------------------------------2----3------------5-----2----------------------------|
---0-------------3-----5------------------0-------------------3----------------3------3----|
---0--------0----------0--------0-----------------0----------2------------2-----------2----|
--------0--------------------0-----------------0--------------0--------0-------------------|
----------------------------------------------------------------0--------------------------|
---5-------------------5-------------------5------------------0-------------------------0--|


---2----5------------2------------------0----2-------------------------------------------|
---3---------------------------3----3--------------3------------1------0--------------1--|
---2-------------2-------------2-------------------0------0------------0---------0-------|
---0-----------------------------------------------------0---------------------0---------|
---0-------------------------------------------------------------------------------------|
---0---------0-----------------0-------------------5-------------------5-----------------|


--------------------------------------2----3------------5-----2----------------------------|
---0-------------3-----5------------------0-------------------3----------------3------3----|
---0--------0----------0--------0-----------------0----------2------------2-----------2----|
--------0--------------------0-----------------0--------------0--------0-------------------|
----------------------------------------------------------------0--------------------------|
---5-------------------5-------------------5------------------0-------------------------0--|


---5------2------------------2--------2-----0---------------0----------0---2-----------|
---3------2------------2----2---------------0----------0----0----------0----------3----|
---2------2--------2---------------2--------0-------0-------0---------------------2----|
---0------2----2----------------2-----------0----0---------------------------------0---|
---0------0------------------0--------------X--------------------------------------0---|
---0-----------------------------------------5----------------5----------5----------0--|
Tap to rate this tab
 
# A B C D E F G H I J K L M N O P Q R S T U V W X Y Z