Song name
# A B C D E F G H I J K L M N O P Q R S T U V W X Y Z

Dan Auerbach - Heartbroken In Disrepair tab

Dan Auerbach
Heartbroken in Disrepair

Drop D tunning

Use this link as a guide
https://www.youtube.com/watch?feature=player_embedded&v=ByAWTFmOd0Q#!
skip to 3:30 min

We used a tape echo and a little distortion but I think it's also possible with tremelo.


e-----------|-----------------|-----------------|-----------------|------------------------|
B-----------|-----------------|-----------------|-----------------|------------------------|
G-----------|-----------------|-----------------|-----------------|------------------------|
D-----------|-----------------|-----------------|-----------------|------------------------|
A-----------|-----------------|-----------------|-----------------|------------------------|
D--3/5------|--0-3p0-3/5-5-5--|--0-3p0-3/5-5-5--|--0-3p0-3/5-5-5--|--0-3p0-3/5-5-5--/8(b)--|



e-----------|-----------------|-----------------|-----------------|------------------------|
B-----------|-----------------|-----------------|-----------------|------------------------|
G-----------|-----------------|-----------------|-----------------|------------------------|
D-----------|-----------------|-----------------|-----------------|------------------------|
A-----------|-----------------|-----------------|-----------------|------------------------|
D--3/5-5-5--|--0-3p0-3/5-5-5--|--0-3p0-3/5-5-5--|--0-3p0-3/5-5-5--|--0-3p0-3/5-5-5--/8(b)--| 



e--x-x-x-x-x-x-x-x--|--x-x-x-x-x-x-x-x--|--x-x-x-x-x-x-x-x--|--x-x-x-x-x-x-x-x-------------| 
B--3-3-3-3-3-3-3-3--|--1-1-1-1-1-1-1-1--|--3-3-3-3-3-3-3-3--|--6-6-6-6-6-6-6-6-------------|
G--4-4-4-4-4-4-4-4--|--2-2-2-2-2-2-2-2--|--4-4-4-4-4-4-4-4--|--7-7-7-7-7-7-7-7-------------|
D--5-5-5-5-5-5-5-5--|--3-3-3-3-3-3-3-3--|--5-5-5-5-5-5-5-5--|--8-8-8-8-8-8-8-8-------------|
A--x-x-x-x-x-x-x-x--|--x-x-x-x-x-x-x-x--|--x-x-x-x-x-x-x-x--|--x-x-x-x-x-x-x-x-------------|
D--x-x-x-x-x-x-x-x--|--x-x-x-x-x-x-x-x--|--x-x-x-x-x-x-x-x--|--x-x-x-x-x-x-x-x-------------| 



e--x-x-x-x-x-x-x-x--|--x-x-x-x-x-x-x-x--|--x-x-x-x-x-x-x-x--|--x-x-x-x---------------------| 
B--3-3-3-3-3-3-3-3--|--1-1-1-1-1-1-1-1--|--3-3-3-3-3-3-3-3--|--6-6-6-6--8b-----------------|
G--4-4-4-4-4-4-4-4--|--2-2-2-2-2-2-2-2--|--4-4-4-4-4-4-4-4--|--7-7-7-7---------------------|
D--5-5-5-5-5-5-5-5--|--3-3-3-3-3-3-3-3--|--5-5-5-5-5-5-5-5--|--8-8-8-8---------------------|
A--x-x-x-x-x-x-x-x--|--x-x-x-x-x-x-x-x--|--x-x-x-x-x-x-x-x--|--x-x-x-x---------------------|
D--x-x-x-x-x-x-x-x--|--x-x-x-x-x-x-x-x--|--x-x-x-x-x-x-x-x--|--x-x-x-x---------------------| 



e-----------|-----------------|-----------------|-----------------|------------------------|
B-----------|-----------------|-----------------|-----------------|------------------------|
G-----------|-----------------|-----------------|-----------------|------------------------|
D-----------|-----------------|-----------------|-----------------|------------------------|
A-----------|-----------------|-----------------|-----------------|------------------------|
D--3/5-5-5--|--0-3p0-3/5-5-5--|--0-3p0-3/5-5-5--|--0-3p0-3/5-5-5--|--0-3p0-3/5-5-5--/8(b)--| 



e--x-x-x-x-x-x-x-x--|--x-x-x-x--|--x-x-x-x-------------------------------------------------|
B--6-6-6-6-6-6-6-6--|--5-5-5-5--|--4-4-4-4-------------------------------------------------|
G--7-7-7-7-7-7-7-7--|--6-6-6-6--|--5-5-5-5-------------------------------------------------|
D--8-8-8-8-8-8-8-8--|--7-7-7-7--|--6-6-6-6-------------------------------------------------|
A--x-x-x-x-x-x-x-x--|--x-x-x-x--|--x-x-x-x-------------------------------------------------|
D--x-x-x-x-x-x-x-x--|--x-x-x-x--|--x-x-x-x-------------------------------------------------| 



e-----------|-----------------|-----------------|-----------------|------------------------|
B-----------|-----------------|-----------------|-----------------|------------------------|
G-----------|-----------------|-----------------|-----------------|------------------------|
D-----------|-----------------|-----------------|-----------------|------------------------|
A-----------|-----------------|-----------------|-----------------|------------------------|
D--3/5-5-5--|--0-3p0-3/5-5-5--|--0-3p0-3/5-5-5--|--0-3p0-3/5-5-5--|--0-3p0-3/5-5-5--/8(b)--| 




e--x-x-x-x-x-x-x-x--|--x-x-x-x--|--x-x-x-x-------------------------------------------------|
B--6-6-6-6-6-6-6-6--|--5-5-5-5--|--4-4-4-4-------------------------------------------------|
G--7-7-7-7-7-7-7-7--|--6-6-6-6--|--5-5-5-5-------------------------------------------------|
D--8-8-8-8-8-8-8-8--|--7-7-7-7--|--6-6-6-6-------------------------------------------------|
A--x-x-x-x-x-x-x-x--|--x-x-x-x--|--x-x-x-x-------------------------------------------------|
D--x-x-x-x-x-x-x-x--|--x-x-x-x--|--x-x-x-x-------------------------------------------------| 



e-----------|-----------------|-----------------|-----------------|------------------------|
B-----------|-----------------|-----------------|-----------------|------------------------|
G-----------|-----------------|-----------------|-----------------|------------------------|
D-----------|-----------------|-----------------|-----------------|------------------------|
A-----------|-----------------|-----------------|-----------------|------------------------|
D--3/5-5-5--|--0-3p0-3/5-5-5--|--0-3p0-3/5-5-5--|--0-3p0-3/5-5-5--|--0-3p0-3/5-5-5--/8(b)--| 
Tap to rate this tab
# A B C D E F G H I J K L M N O P Q R S T U V W X Y Z