Song name
# A B C D E F G H I J K L M N O P Q R S T U V W X Y Z

Dan Balan - Sugar Tunes tab

Dan Balan: http://www.newnuma.com/danbalan.html

----------------------------------------------------------------------------
			     Sugar Tunes - Dan Balan
----------------------------------------------------------------------------
Tabbed by: Matias Faundez
Email: ratso_daninos@hotmail.com

Intro:
E|------------------7-------8--12-------------------------7-------8-|
B|-10-----------------------------------10--------------------------|
G|----------9-------------------------------------9-----------------|
D|------------------------------------------------------------------|
A|------------------------------------------------------------------|
E|------------------------------------------------------------------|

Chorus:
E|---------------------------------|
B|---------------------------------|
G|---------5-5-5-5---------2-2-2-2-|
D|-3-3-3-3-5-5-5-5-5-5-5-5-2-2-2-2-|  X2
A|-3-3-3-3-3-3-3-3-5-5-5-5-0-0-0-0-|
E|-1-1-1-1---------3-3-3-3---------|

Verse:
E|-----------------------------3---|
B|-------------------------5-5---5-|
G|-5-5-5-5-5-5-5-5-7-7-7-7---------|
D|---------------------------------|  X2
A|---------------------------------|
E|---------------------------------|

E|-------------------------22-22-22-22-24-24-24-24-|
B|----------------17-17-20-------------------------|
G|-17-17-17-17-17----------------------------------|
D|-------------------------------------------------|
A|-------------------------------------------------|
E|-------------------------------------------------|

E|-8-8-8-8-8-8-8-8-10-10-10-10-12--|
B|-6-6-6-6-5-5-5-5--8--8--8--8-10--|
G|--------(5)5)5)5)----------------|
D|--------(5)5)5)5)(5)(5)(5)(5)(7)-|
A|--------(3)3)3)3)(5)(5)(5)(5)(7)-|
E|-----------------(3)(3)(3)(3)(5)-|

(Chorus)

Verse:
E|-----------------------------3---|
B|-------------------------5-5---5-|
G|-5-5-5-5-5-5-5-5-7-7-7-7---------|
D|---------------------------------|  X2
A|---------------------------------|
E|---------------------------------|

E|-------------------------------------24-24-24-24-|
B|-------------------------------------17---17--17-|
G|-17-17-17-17-17---17--17-19-19-19-19-------------|
D|-------------------------------------------------|
A|-------------------------------------------------|
E|-------------------------------------------------|

E|---------8-8-8-8-10-10-10-10-12--|
B|---------5-5-5-5--8--8--8--8-10--|
G|-17-----(5)5)5)5)----------------|
D|--------(5)5)5)5)(5)(5)(5)(5)(7)-|
A|--------(3)3)3)3)(5)(5)(5)(5)(7)-|
E|-----------------(3)(3)(3)(3)(5)-|

(Chorus X2)

(Intro)

Verse(sorta with rhythm):
E|---------------------------------|
B|---------------------------------|
G|---------5-5-5-5-----------------|
D|-3-3-3-3-5-5-5-5-5-5-5-5-7-7-5-7-|  X2
A|-3-3-3-3-3-3-3-3-5-5-5-5-7-7-5-7-|
E|-1-1-1-1---------3-3-3-3-5-5-3-5-|

Solo:
E|----------------------------------|
B|-1-/10---1-/8---0-/8---10-10-8-10-|
G|------------------------^---------|
D|------------------------|---------|  X2
A|------------------------|---------|
E|-------2nd-time-cut-off-here------|

(Chorus)

-------------------------
| /  slide up
| \  slide down
| h  hammer-on
| p  pull-off
| ~  vibrato
| +  harmonic
| x  Mute note
============================================================================
Tap to rate this tab
# A B C D E F G H I J K L M N O P Q R S T U V W X Y Z