Song name
# A B C D E F G H I J K L M N O P Q R S T U V W X Y Z

Dan Byrd - Boulevard tab

TAB BY:TAKAZEROH
PAKI RATE TNX!

e|--------5--------7---8------------------------5-------------7---8----------|
B|---------------------------5--------------------------------------------6--|
G|---------------------------------------------------------------------------|
D|---------------------------------------------------------------------------|
A|---------------------------------------------------------------------------|
E|---------------------------------------------------------------------------|

e|-------5---------7----8--8-----7-------5----4------------------------------|
B|---------------------------------------------------------------------------|
G|---------------------------------------------------------------------------|
D|---------------------------------------------------------------------------|
A|---------------------------------------------------------------------------|
E|---------------------------------------------------------------------------|

e|-------4----5---------7----7/8---------5-----------------------------------|
B|---------------------------------------------------------------------------|
G|---------------------------------------------------------------------------|
D|---------------------------------------------------------------------------|
A|---------------------------------------------------------------------------|
E|---------------------------------------------------------------------------|
Tap to rate this tab
# A B C D E F G H I J K L M N O P Q R S T U V W X Y Z