Song name
# A B C D E F G H I J K L M N O P Q R S T U V W X Y Z

Dan Croll - Home tab

This tab is for those who want to use standard tuning to play this song.
CAPO 2

INTRO
|------------------------------------------------------------------|
|----0-------0-------0-------0-------0-------0-------0-------0-----|
|------0-------0-------0-------0-------0-------0-------0-------0---|
|--------0-------0-------2-------2-------0-------0-------2-------2-|
|--5-------5-------5-------5-------5-------5-------5-------5-------|
|------------------------------------------------------------------|

VERSE
|-------------------------------------------------------------------|
|----0-------0-------0-------0-------0-------0-------0-------0------|
|------0-------0-------0-------0-------0-------0-------0-------0----|
|--------0-------0-------2-------2-------4-------4-------5-------5--| x2
|--5-------5-------5-------5-------5-------5-------5-------5--------|
|-------------------------------------------------------------------|

|------------------------------------------------------------------|
|----5-------5-------5-------5-------5-------5-------5-------5-----|
|------5-------5-------5-------5-------5-------5-------5-------5---|
|--------5-------5-------5-------5-------5-------5-------5-------5-|
|--3-------3-------3-------3-------3-------3-------3-------3-------|
|------------------------------------------------------------------|

|------------------------------------------------------------------|
|----0-------0-------0-------0-------0-------0-------0-------0-----|
|------0-------0-------0-------0-------0-------0-------0-------0---|
|--------0-------0-------2-------2-------0-------0-------2-------2-|
|--5-------5-------5-------5-------5-------5-------5-------5-------|
|------------------------------------------------------------------|

'CHORUS'
|------------------------------------------------------------------|
|----7-------7-------7-------7-------7-------7-------7-------7-----|
|------7-------7-------7-------7-------5-------5-------5-------5---|
|--------7-------7-------7-------7-------7-------7-------7-------7-|
|--5-------5-------5-------5-------5-------5-------5-------5-------|
|------------------------------------------------------------------|

|------------------------------------------------------------------|
|----5-------5-------5-------5-------5-------5-------5-------5-----|
|------5-------5-------5-------5-------3-------3-------3-------3---|
|--------5-------5-------5-------5-------5-------5-------5-------5-|
|--3-------3-------3-------3-------3-------3-------3-------3-------|
|------------------------------------------------------------------|

|------------------------------------------------------------------|
|----0-------0-------0-------0-------0-------0-------0-------0-----|
|------0-------0-------0-------0-------0-------0-------0-------0---|
|--------0-------0-------2-------2-------0-------0-------2-------2-|
|--5-------5-------5-------5-------5-------5-------5-------5-------|
|------------------------------------------------------------------|
Tap to rate this tab
# A B C D E F G H I J K L M N O P Q R S T U V W X Y Z