Song name
# A B C D E F G H I J K L M N O P Q R S T U V W X Y Z

Dan Croll - Marion tab

I really like this song so I tried to tab it out. I'm not sure if it's even decent 
(it sounded pretty good to me) but it's what I have.
The version I tabbed out is this one:
http://www.youtube.com/watch?v=RjfFOGsVA7A

Intro and Verse:
e-------------------------------------------------------------------|
B----10-10---10-10---10-10---10-10-----8--8----8--8----8-8---8-8----|
G-----9--9----9--9----9--9----9--9-----9--9----9--9----7-7---7-7----|
D----10-10---10-10---10-10---10-10----10-10---10-10----8-8---8-8----|
A--8-------8-------8-------8-------------------------7-----7--------|
E-----------------------------------8-------8-----------------------|

Pre Chorus:

 Am/F      Am/F  Gm/E   Gm/E                                                       
e-------------------------------------------------------------------|
B-10---------10----8-----888888888888888----------------------------|
G--9----------9----7-----777777777777777----------------------------|
D-10---------10----8-----888888888888888----------------------------|
A--8----------8----7-----777777777777777----------------------------|
E-------------------------------------------------------------------|

Chorus (Couldn't figure the strumming properly so I'll just leave the chord progression):
                  
  Am/F    C/G    G                                                       
e----------------3--------------------------------------------------|
B--10------8-----3--------------------------------------------------|
G---9------9-----4--------------------------------------------------|
D--10-----10-----5--------------------------------------------------|
A---8-----10-----5--------------------------------------------------|
E----------------3--------------------------------------------------|
                                                                     
Bridge (part where the song slows down):                             
                                                                      
Strum pattern goes something like this: 
D-D-U-U in groups of 4 the last strum is almost unnoticeable because it is much 
softer than the previous 3.
                                                                          
 Am/F  x16                 Am  x8              Amadd9  x8
e----8------------------------8----------------------7--------------|
B---10-----------------------10---------------------10--------------|
G----9------------------------9----------------------9--------------|
D---10-----------------------10---------------------10--------------|
A----8------------------------0----------------------0--------------|
E-------------------------------------------------------------------|
Tap to rate this tab
# A B C D E F G H I J K L M N O P Q R S T U V W X Y Z