Song name
# A B C D E F G H I J K L M N O P Q R S T U V W X Y Z

Dan Croll - Sweet Disarray tab

Im not sure if ive got this 100% correct, or even 20%. 
But here's my two cents...

Tuning: Eb A D F# B Eb



Intro:
eb ---0----------------------------------------------|
B  ---0-----------------0------0------0------0-------|
F# ---0-------------------0------0------0------0-----|
D  ---1---------------------1------1------1------1---|
A  ---2----------------------------------------------|
Eb ---3----------------3------3-----3-------3--------|
      (let ring)

eb -------------------------------------------------------------|
B  --------------------------------0------0------0------0-------|
F# ----4------4------4------4--------2------2------2------2-----|
D  ------4------4------4------4--------1------1------1------1---|
A  --------6------6------6------6-------------------------------|
Eb ---0------0------0------0------2------2------2------2--------|
      
eb ----------------------------------------------------------------|
B  ----0------0------0------0------0------0------0------0----------|
F# ------2------2------2------2------2------2------2------2--------|
D  --------2------2------2------2------2------2------2------2------|
A  ----------------------------------------------------------------|
Eb ---1------1------1------1------1------1------1------1-----------|
      




Verse:
eb ---------------------------------|
B  ----0------0------0------0-------|
F# ------0------0------0------0-----|
D  --------1------1------1------1---|
A  ---------------------------------|
Eb ---3------3-----3-------3--------|
      

eb -------------------------------------------------------------|
B  --------------------------------0------0------0------0-------|
F# ----4------4------4------4--------2------2------2------2-----|
D  ------4------4------4------4--------1------1------1------1---|
A  --------6------6------6------6-------------------------------|
Eb ---0------0------0------0------2------2------2------2--------|
      
eb ----------------------------------------------------------------|
B  ----0------0------0------0------0------0------0------0----------|
F# ------2------2------2------2------2------2------2------2--------|
D  --------2------2------2------2------2------2------2------2------|   x2
A  ----------------------------------------------------------------|
Eb ---1------1------1------1------1------1------1------1-----------|   


Pre-Chorus:
eb -------------------------------------------------------------|
B  ----0------0------0------0------0------0------0------0-------|
F# ------2------2------2------2------2------2------2------2-----|
D  --------1------1------1------1------1------2------2------2---|  x2
A  -------------------------------------------------------------|
Eb ---2------2------2------2------1------1------1------1--------|
      
eb ------------------------------------|
B  ----0------0------2------2----------|
F# ------2------2------2------2--------|
D  --------2------2------2------2------|  (Add this 2nd time round)
A  ------------------------------------|
Eb ---1------1------1------1-----------|



Chorus:
eb ---------------------------------|
B  ----0------0------0------0-------|
F# ------0------0------0------0-----|
D  --------1------1------1------1---|
A  ---------------------------------|
Eb ---3------3-----3-------3--------|

eb -------------------------------------------------------------|
B  --------------------------------0------0------0------0-------|
F# ----4------4------4------4--------2------2------2------2-----|
D  ------4------4------4------4--------1------1------1------1---|
A  --------6------6------6------6-------------------------------|
Eb ---0------0------0------0------2------2------2------2--------|
      
eb --------------------------------|------------------------------|
B  ----0------0------0------0------|--0------0------0------0------|
F# ------2------2------2------2----|----2------2------2------2----|
D  --------2------2------2------2--|------2------2------2------2--|
A  --------------------------------|------------------------------|
Eb ---1------1------1------1------1|--------1------1------1-------|
                                       (Add this 2nd time)


Its basically this all the way through.

End:

eb -------------------------------------------------------------|
B  ----0------0------0------0------0------0------0------0-------|
F# ------2------2------2------2------2------2------2------2-----|
D  --------1------1------1------1------1------2------2------2---|  x4
A  -------------------------------------------------------------|
Eb ---2------2------2------2------1------1------1------1--------|
      
eb -----------------------------------------0-------------------|
B  ----0------0------0-------0--------------0-------------------|
F# ------2------2------2--------2-----------0-------------------|
D  --------2------2------2---------2--------1-------------------|  
A  -----------------------------------------2-------------------|
Eb ---1------1------1------1----------------3-------------------|
                                            (Let Ring)

Thank you.




Tap to rate this tab
# A B C D E F G H I J K L M N O P Q R S T U V W X Y Z