Song name
# A B C D E F G H I J K L M N O P Q R S T U V W X Y Z

Dan D - Jutranja tab

Hey! Hope you like the tab! If you have any questions, 
send me an e-mail on domen.koter@gmail.com

Have fun!

--------------------------------

CHORDS:
A     - X02220
Am    - X02210
A/G#  - 4X2220
Bm    - X1332X
C     - X35553
C#m   - X46654
D     - X00232
E     - 022100
Esus2 - 024400
H     - X24442

_________________________________

INTRO:

    E
    Ni strahu v gmoti teles
    iscemo eni drugje
                  D
         in  to  je
                  E
        naš vsak dan - Amen

   E                                   D                E
e|----5-4------5-4------5-4------5-4------5-4-----5-4------5-4------5-4---|
B|-5--------5--------5--------5--------3-------3--------5--------5--------|
G|------------------------------------------------------------------------|  -- z delayem
D|------------------------------------------------------------------------|
A|------------------------------------------------------------------------|
E|------------------------------------------------------------------------|

  C#m
    V zraku so prepovedane misli
  C
    nekdo pozna nase pravo stanje
  H               
    a se ti ne zdi     
  Bm                    
    da je vse manj ljudi  

   C#m         C             H             Bm
e|-----------------------------------------------------------|
B|-----------------------------------------------------------|
G|------6-6---------5-5-----------4-4-----------3-3----------|
D|-----------------------------------------------------------|
A|-4----------43-----------332-----------2-1-----------1/----|
E|-----------------------------------------------------------|


VERZ 1:

   E                                  D
e|----------------------------------|-2------2------|
B|----------------------------------|-3------3------|
G|----------------------------------|-2------2------|
D|----------------------------------|-0------0------|
A|---------7---------------5--------|-0------0------|
E|-0---3-0----0--3-0-0-3-0----0--3--|---------------|

  E
    Ni strahu v gmoti teles
    iscemo eni drugje
                      D
               in to je
                      E
         nas vsak dan ... Amen

    Lahni kot veter polni moci
    skriti v mestu za zlatimi vrati
                      D
                     naj odkrijejo 
                      E
           da spimo vsi


CHORUS 1:

  C#m
    V zraku so prepovedane misli
  E
    nekdo pozna nase pravo stanje
  A               A/G#
    a se ti ne zdi
  F#m
    da je vse manj ljudi

  C#m
    Nevarne igre na meji okusa
  Esus2
    izbrani plesejo nad nami
  F#m
    a se ti ne zdi
  Am 
    da vse manj boli


VERSE 2:

  E
    Straža nas cuva in nas denar
    nemirne misli odganjamo stran
                      D
               in to je
                      E
         naš vsak dan ... Amen
  E
    Skrbno varujemo svoj prepad
    z roko v roki za večno pomlad
                      D
                     Gor in na pamet
                      E
                    bla bla bla


CHORUS 2:

  C#m
    V zraku so prepovedane misli
  Esus2
    nekdo pozna nase pravo stanje
  A               A/G#
    a se ti ne zdi
  F#m
    da je vse manj ljudi

  C#m
    Nevarne igre na meji okusa
  E
    izbrani plesejo nad nami
  F#m
    a se ti ne zdi
  Am 
    da vse manj boli


BRIDGE:

   E
e|----------------------------------------------------------------------------------|
B|----------------------------------------------------------------------------------|
G|----------------------------------------------------------------------------------|
D|----------------------------------------------------------------------------------|
A|----------------------------------------------------------------------------------|
E|-10/12--12--12-0----10/12----12-12-0----10/12--12--12-0----10/12-12-12-12-12-0----|

e|------------------------------------------------------------------------------------|
B|------------------------------------------------------------------------------------|
G|------------------------------------------------------------------------------------|
D|------------------------------------------------------------------------------------|
A|------------------------------------------------------------------------------------|
E|-10/12-0-12-0-12-0----10/12----12-12-0----10/12--12--12-0----10/12-12-12-12-12-0----|


CHORUS 3:

  C#m
    V zraku so prepovedane misli
  Esus2
    nekdo pozna nase pravo stanje
  A               A/G#
    a se ti ne zdi
  F#m
    da je vse manj ljudi

  C#m               E
    Aaaaa... se ti ne zdi
  F#m                     Am
    daaaa... je vse manj ljudi
  C#m               Esus2
    Aaaaa... se ti ne zdi
  F#m                 Am
    daaaa... vse manj boli
Tap to rate this tab
 
# A B C D E F G H I J K L M N O P Q R S T U V W X Y Z