Song name
# A B C D E F G H I J K L M N O P Q R S T U V W X Y Z

Dan D - Lep Dan Za Smrt Cover tab

INTRO:

  a        C   G       e 
Sonce je sijalo, in sirene so tulile.
  a          C   G   e
Nebo bilo je modro, skoraj brez oblačka.
      a            C   G       e
Pod svetlo rumenim soncem sva tekla po cesti,
    a          C    G  e
Ko naju je objel prvi blisk sva padla


REFREN 1: 
C   G        Fmaj7                  G
A- -a, pa tako lep dan je bil, preveč lep za smrt.   2x + 2x

SOLO 1:
e|-0-0-0-0-0-0-0-0-0-0-0-0-0-0-0-0-0-0-0...|
B|-----------------------------------------|v drugi ponovitvi prvega refrena
G|-----------------------------------------|  igra to druga kitara
D|-----------------------------------------|
A|-----------------------------------------|
E|-----------------------------------------|

e|--------------------------------------|
B|--------------------------------------|
G|-/5----5-4----------------------------|  2x
D|-----------7-5----/7--5-3----2-3-5----|
A|--------------------------------------|
E|--------------------------------------|


VERZ:
 a        C          G       e
Moj strah in zadnji dih, drgetanje in jok,
  a        C G    e
Bliža se smrt, smrt in ne ljubezen.
 a      C G     e                
Tvoje oči   s pogledom tja, 
a        C               G         
kjer je nekoč sijalo sonce,
 e 
So bile mrtve.


REFREN: 
C   G        Fmaj7                  G
A- -a, pa tako lep dan je bil, preveč lep za smrt.   2x

C   G   Fmaj7   G

C     C7M9  Fmaj7 G
 aaaa, aaaa, aaaa, aaaa

SOLO 2:
e|------8-----8------------------------------|
B|-8-------8-----8----8-6-5-6----5-6-5-6-5---|
G|-------------------------------------------|
D|-------------------------------------------|
A|-------------------------------------------|
E|-------------------------------------------|

e|----------------------------------------------|
B|----------------------------------------------|
G|------5-----5---------------------------------|
D|-5-------5-----5----5-3-2-3----2-3-2-3-2------|
A|----------------------------------------------|
E|----------------------------------------------|


VERZ:
     a   G   Fmaj7  > 3x

Ležala sva v krvi sredi gorečega
Zraka in ognja, ležala pod soncem.
Razžarjenim, rdečim, neresničnim,
Sredi obzorja zavitega v dim,
a            C7M9   C
Sredi prvega dne vojne.


VERZ
C
Čas bo zacelil svet, čas bo pomlajšal ta planet
				      C 
in ko naju ne bo ostalo bo rožnato nebo

REFREN:
C   G        Fmaj7                  G
O- -o, pa tako lep dan je bil, preveč lep za smrt.  2x
C   C7M9     Fmaj7                  G
A- -a, pa tako lep dan je bil, preveč lep za smrt.
C   G        Fmaj7                  G      
A- -a, pa tako lep dan je bil, preveč lep za smrt.
Tap to rate this tab
 
# A B C D E F G H I J K L M N O P Q R S T U V W X Y Z