Song name
# A B C D E F G H I J K L M N O P Q R S T U V W X Y Z

Dan Henig - Thrift Shop tab

-----------------------------------------------------------------------------
          Thrift Shop  Macklemore and Ryan Lewis Cover by Dan Henig
-----------------------------------------------------------------------------
Tabbed by: Scott Cavin
E-mail:calmoc9@yahoo.com

Tuning: Standard

e|--8-----------6-----------4------------3-----------------------------------|
B|--9-----------6-----------4------------3-----------------------------------|
G|--8-----------8-----------3------------5-----------------------------------|
D|--10----------8-----------3------------5-----------------------------------|
A|--8-----------6-----------4------------3-----------------------------------|
E|--X-----------X-----------X------------X-----------------------------------|


Above chords throughout, listen to the song for the strum pattern.
Link:  https://www.youtube.com/watch?v=kBHJiKpbSLA
Be sure to check out Dan's other covers, he's one talented mofo.
Tap to rate this tab
# A B C D E F G H I J K L M N O P Q R S T U V W X Y Z