Song name
# A B C D E F G H I J K L M N O P Q R S T U V W X Y Z

Dan Hill - Its A Long Road tab

------------------------------------------------------------------------------                
It's A Long Road (Rambo Theme) - Misc Soundtrack (Dan Hill)
------------------------------------------------------------------------------
Tabbed by: J.S.L
Email: jonas.lindstroem@yahoo.se

Tuning: Standard

Version 1
e|----------13~~-13-12-------------------------------------------------------|
B|----13-15------------15----13~~-13-12-10-----------------------------------|
G|-14---------------------14---------------9---9-11-12---14------------------|
D|----------------------------------------------------------14~~-------------|
A|---------------------------------------------------------------------------|
E|---------------------------------------------------------------------------|

Version 2
e|----------13~~-13-12-------------------------------------------------------|
B|----13-15------------15----------------------------------------------------|
G|-14---------------------14-14/17~~-17-16-14---------------14---------------|
D|--------------------------------------------14~~-14-16-17----14------------|
A|---------------------------------------------------------------------------|
E|---------------------------------------------------------------------------|

Version 3
e|---------------------------------------------------------------------------|
B|-------6~~-6-5-------------------------------------------------------------|
G|-----7---------7-----------------------------------------------------------|
D|-6/7-------------7-7/10~~-10-9-7--------------7----------------------------|
A|---------------------------------7~~-7-9-10~~---7~~------------------------|
E|---------------------------------------------------------------------------|

All three versions are correct, personally I like Version 1 the best.

************************************

| /   slide up
| \   slide down
| h   hammer-on
| p   pull-off
| ~   vibrato
| +   harmonic
| x   Mute note
| b   Bend
| pb  Pre-bend
| br  Bend release
| pbr Pre-bend release
| brb Bend release bend

************************************
Tap to rate this tab
 
# A B C D E F G H I J K L M N O P Q R S T U V W X Y Z