Song name
# A B C D E F G H I J K L M N O P Q R S T U V W X Y Z

Dan Mangan - Journal Of A Narcoleptic tab

-----------------------------------------------------------------------------
			  JOURNAL OF A NARCOLEPTIC Ė Dan Mangan
-----------------------------------------------------------------------------
Tabbed by: Matt
Email: mwolsfeld@gmail.com

Tuning: Capo On 3rd


Verses

Guitar 1
E--------------|--------------|--------------|-------------|
B-----0--------|--------------|-----------3--|----------3--|
G--------2-----|----0------0--|-----0ó-2-----|-4-----------|
D--5--------5--|-4-----4h5----|-0h5----------|----5--5-----|
A--3-3-3-3-0-0-|-5-5-5-5--5-5-|--------------|-------------|
E--------------|--------------|-3--3-3-3-3-3-|-0-0-0-0-0-0-|

E--------------|--------------|--------------|-------------|
B-----0--------|--------------|-----3--------|----3--------|
G--------2-----|----0------0--|--------4-----|-------4-----|
D--5--------5--|-4-----4h5----|-0h5--------5-|-5--------5--|
A--3-3-3-3-0-0-|-5-5-5-5--5-5-|--------------|-------------|
E--------------|--------------|-0--0-0-0-0-0-|-0-0-0-0-0-0-|

Guitar 2 Ė Strumming (2nd and 3rd Verses only)
E--------------|--------------|-------------|-------------|
B--0-----------|--0-----------|-------------|-------------|
G--0-----------|--0-----------|--0----------|--0----------|
D--2-----------|--4-----------|--0----------|--4----------|
A--3-----------|--5-----------|--0----------|--2----------|
E--------------|--------------|--3----------|--0----------|

E--------------|--------------|-------------|-------------|
B--0-----------|--0-----------|-------------|-------------|
G--0-----------|--0-----------|--0----------|--0----------|
D--2-----------|--4-----------|--4----------|--4----------|
A--3-----------|--5-----------|--2----------|--2----------|
E--------------|--------------|--0----------|--0----------|



Chorus

Guitar 1
E--------------|-------------|-------------|-------------|
B-----0-----0--|----0-----0--|----0-----0--|----0-----0--|
G--0-----2-----|-0-----2-----|-0-----2-----|-0-----2-----|
D--------------|-------------|-------------|-------------|
A--3-3-3-3-3-3-|-------------|-------------|-------------|
E--------------|-3-3-3-3-3-3-|-0-0-0-0-0-0-|-0-0-0-0-0-0-|

E--------------|-------------|-------------|-------------|
B-----0-----0--|----0-----0--|----0-----0--|----0-----0--|
G--0-----2-----|-0-----2-----|-0-----2-----|-0-----2-----|
D--------------|-------------|-------------|-------------|
A--3-3-3-3-3-3-|-3-3-3-3-3-3-|-------------|-------------|
E--------------|-------------|-0-0-0-0-0-0-|-0-0-0-0-0-0-|


Guitar 2 (Let Notes Ring)
E--------------|-------------|-------------|-------------|
B--0-----------|-------------|-------------|-------------|
G--------------|-0-----------|-------------|-------------|
D--------------|-------------|-0-----------|-------------|
A--------------|-------------|-------------|-------------|
E--------------|-------------|-------------|-------------|

E--------------|-------------|-------------|-------------|
B--------------|-------------|-------------|-------------|
G--------------|-------------|-------------|-------------|
D--0-----------|-------------|-------------|-------------|
A--------------|-3-----------|-2-----------|-------------|
E--------------|-------------|-------------|-------------|



This room will stay just as it is now
For quite some time
The bottle stench may be here to stay
But you know
We had our fun
I keep waiting
Keep wasting my time

Iím sorry
Iím sorry
But it ainít easy
No it ainít easy

The covers warm but underneath - the crumbs
Not as pleasing
The carpet stain
Well he found some friends
Cause you know, stains get lonely
Sometimes Iím sleeping 
And Iím still on my feet

Iím sorry
Iím sorry
But it ainít easy
No it ainít easy

And sometimes Iím sleeping
And Iím still on my feet
And lord, its deceiving
How were all in so deep

Iím sorry
Iím sorry
But it ainít easy
No it ainít easy



************************************

| /   slide up
| \   slide down
| h   hammer-on
| p   pull-off
| ~   vibrato
| +   harmonic
| x   Mute note
| b   Bend
| pb  Pre-bend
| br  Bend release
| pbr Pre-bend release
| brb Bend release bend

************************************
Tap to rate this tab
# A B C D E F G H I J K L M N O P Q R S T U V W X Y Z