Song name
# A B C D E F G H I J K L M N O P Q R S T U V W X Y Z

Dan Mangan - Tragic Turn Of Events tab

-------------------------------------------------------------------------------
		Tragic Turn of Events/Move Pen Move - Dan Mangan
-------------------------------------------------------------------------------
Tabbed by: Neil Brown
Email: DoktorPete@Gmail.com

Tuning: Standard

This is my very first tab, it's certainly not 100% accurate but its a pretty decent 
let everything ring for the most part, especially the chords.


e|-------------3---3-------------------3--0---------------------------------|
B|-----------------1---------------1----------------------------------------|
G|---2--0h2--------2-----2-0h2p0---0----------------------------------------|
D|-----------3-----3---------------2----------------------------------------|
A|---------------------------------3----------------------------------------|
E|--------------------------------------------------------------------------|


After the first time there's more of an emphasis on full chords		   x3
e|---0-------------3-----3-------------3--0---------------------------------|
B|---1-------------1-----1---------1----------------------------------------|
G|---0h2-----------2-----2-0h2p0---0----------------------------------------|
D|---3-------------3-----3---------2----------------------------------------|
A|---------------------------------3----------------------------------------|
E|--------------------------------------------------------------------------|


This becomes the basis for most of the song
e|---0-------3-3-3-3---------3-3---3---3-3-3-3----3-3-3-3-------------------|
B|---1-------1-1-1-1---------1-1---1---1-1-1-1----1-1-1-1-------------------|
G|---0h2-----2-2-2-2---------2-0---0---0-0-0-0----0-0-0-0-------------------|
D|---3-------3-3-3-3---------3-3---2---2-2-0-0----0-0-0-0-------------------|
A|---------------------------------3---3-3-3-2----2-2-2-2-------------------|
E|-------------------------------------------3----3-3-3-3-------------------|

Obviously you can fiddle around with hammer-ons and pull-offs as you see fit. The song 
give you the strumming patterns and the like but from what I can hear it's mostly riff 3. 
song sort of resets whenever Dan starts to sing, just without the emphasized G-E on the ends.
Tap to rate this tab
# A B C D E F G H I J K L M N O P Q R S T U V W X Y Z