Guitaretab - guitar tabs
Song name
# A B C D E F G H I J K L M N O P Q R S T U V W X Y Z

Dan Miller - First Real One tab

hope ppl like it.
[ Tab from: http://www.guitaretab.com/d/dan-miller/183798.html ]
Intro/Verse 1
e | -----------------------------------------|
B | -----------------------------------------|
G | ---------------------------3-1-------3-1-|X2
D | -------3-1-------3-1---3-1-------3-0-----|
A | ---3-1-------3-1-------------------------|
E | -3---------3---------3---------3---------|
Chorus
e |-5-5---7-7-7---3-3-3---0-0-0-|--5-5---7-7-7---3-3-3---0-0-0-|
B |-5-5---7-7-7---3-3-3---0-0-0-|--5-5---7-7-7---3-3-3---0-0-0-|
G |-6-6---8-8-8---4-4-4---1-1-1-|--6-6---8-8-8---4-4-4---1-1-1-|X2
D |-7-7---9-9-9---5-5-5---2-2-2-|--7-7---9-9-9---5-5-5---2-2-2-|
A |-7-7---9-9-9---5-5-5---2-2-2-|--7-7---9-9-9---5-5-5---2-2-2-|
E |-5-5---7-7-7---3-3-3---0-0-0-|--5-5---7-7-7---3-3-3---0-0-0-|
verse 2
e | -----------------------------------------|
B | -----------------------------------------|
G | ---------------------------5-3-------5-3-|X2
D | -------5-3-------5-3---5-3-------5-2-----|
A | ---5-3-------5-3-------------------------|
E | -5---------5---------5---------5---------|
Chorus
e |-5-5---7-7-7---3-3-3---0-0-0-|--5-5---7-7-7---3-3-3---0-0-0-|
B |-5-5---7-7-7---3-3-3---0-0-0-|--5-5---7-7-7---3-3-3---0-0-0-|
G |-6-6---8-8-8---4-4-4---1-1-1-|--6-6---8-8-8---4-4-4---1-1-1-|X2
D |-7-7---9-9-9---5-5-5---2-2-2-|--7-7---9-9-9---5-5-5---2-2-2-|
A |-7-7---9-9-9---5-5-5---2-2-2-|--7-7---9-9-9---5-5-5---2-2-2-|
E |-5-5---7-7-7---3-3-3---0-0-0-|--5-5---7-7-7---3-3-3---0-0-0-|
solo
e |-5p3p0-5p3p0-5p3p0-5p3p0-3-3/7-8-7-3-5~-|
B |----------------------------------------|
G |----------------------------------------|
D |----------------------------------------|
A |----------------------------------------|
E |----------------------------------------|
bridge
e |-----------------------------|
B |-----------------------------|
G |-555-222-------------222-----|
D |-555-222-333-555-222-222-222-|
A |-333-000-333-535-222-000-222-|
E |---------111-333-000-----00o-|
Chorus
e |-5-5---7-7-7---3-3-3---0-0-0-|--5-5---7-7-7---3-3-3---0-0-0-|
B |-5-5---7-7-7---3-3-3---0-0-0-|--5-5---7-7-7---3-3-3---0-0-0-|
G |-6-6---8-8-8---4-4-4---1-1-1-|--6-6---8-8-8---4-4-4---1-1-1-|X2
D |-7-7---9-9-9---5-5-5---2-2-2-|--7-7---9-9-9---5-5-5---2-2-2-|
A |-7-7---9-9-9---5-5-5---2-2-2-|--7-7---9-9-9---5-5-5---2-2-2-|
E |-5-5---7-7-7---3-3-3---0-0-0-|--5-5---7-7-7---3-3-3---0-0-0-|

sorry no lyrics yet.