Song name
# A B C D E F G H I J K L M N O P Q R S T U V W X Y Z

Dan Murray - Foolish Pride tab

http://www.geocities.com/deadlts/


Tuning: E A D G B E
I did a lot of revisions on this tab I think it came out
Pretty damn good.
Intro/Verse:

------------------------------------------------------------------------------|
------------------------------------------------------------------------------|
-13---13--13-13-13-----13-14-----------6-6---666------------------------------|
-11---11--11-11-11-9---------14---7-7--6-6---666------------------------------|
--9----9---9--9--9-7---------12---7-7-----------------------------------------|
------------------------------------------------------------------------------|
 fill (guitar 2)                     end intro with this

--------------------------------|------------------------------------------------|
--------------------------------|------------------------------------------------|
--------------------------------|-----------------------------14-----------------|
-16b-16--14b-11-11/14\\11-11-----|-16b-16--14b-11-11/14\\11-11-----14-----14-----|
------------------------------x2|------------------------------------------------|
--------------------------------|------------------------------------------------|

  preverse (guitar 1 distortion)

------------------------------------------------------------------------------|
------------------------------------------------------------------------------|
------------------------------------------------------------------------------|
-4---4--44--22--2--22/7--77-77-7/99-99/11-------------------------------------|
-4---4--44--22--2--22/7--77-77-7/99-99/11-------------------------------------|
-2---2--22--00--0--00/5--55-55-5/77-77/9--------------------------------------|
 guitar 2

------------------------------------------------------------------------------|
-7--7---77--55--5--55/10-1010-1010-10/12-12/14--------------------------------|
-x--x---xx--xx--x--xx--x--x-x--x-x--x--x--x--x--------------------------------|
-4--4---44--22--2--22/-7--7-7--7-7--7/-9--9/11--------------------------------|
------------------------------------------------------------------------------|
------------------------------------------------------------------------------|
 chorus                                         .

------------------------------------------------------------------------------|
------------------------------------------------------------------------------|
------------------------------------------------------------------------------|
--4---4-4/7--7-77--4-44-4-44--4-44-7-77--7-77--7------------------------------|
--2---2-2/5--5-55--4-44-4-44--4-44-5-55--5-55--5------------------------------|
--2---2-2/5--5-55--2-22-2-22--2-22-5-55--5-55--5------------------------------|
 solo i dont think its 100% correct


------------------------------------------------------------------------------|
-12b-12b--12p10-12v--------------------------------9h12p9h12-12---------------|
----------------------9-11-11b-9-----9-11-------------------------------------|
---------------------------------11-------11-11-------------------------------|
------------------------------------------------------------------------------|
------------------------------------------------------------------------------|


------------------------------------------------------------------------------|
-9h12p9h12-12----9h12p9h12-12b-11-12-11---11-12-------------------------------|
------------------------------------------------11b----9----9--11h13p11-------|
----------------------------------------------------11---11-------------------|
------------------------------------------------------------------------------|
------------------------------------------------------------------------------|


------------------------------------------------------11b-11---11b-11---------|
-------------------------------------------------------------9----------------|
-11-11-9---------------------11b-9----9-11h13p11-11-9-------------------------|
-----------------------------------11-----------------------------------------|
-----------10b-10b-11-10b-10--------------------------------------------------|
------------------------------------------------------------------------------|


---13b-1412-------------------------------------------------------------------|
-9----------1412-13b----------------------------------------------------------|
---------------------13-11------9---------------------------------------------|
------------------------------------------------------------------------------|
------------------------------------------------------------------------------|
------------------------------------------------------------------------------|
 fill

--------------------------------------------------------------------------------|
--------------------------------------------------------------------------------|
--------------------------------------------------------------------------------|
-6---6-6\\2--2--22--4--4--44--7-7-----------------------------------------------|
-4---4-4\\2--2--22--2--2--22--7-5-----------------------------------------------|
-4---4-4\\0--0--00--2--2--22--5-5-----------------------------------------------|
rate this tab!!
Tap to rate this tab
 
# A B C D E F G H I J K L M N O P Q R S T U V W X Y Z