Song name
# A B C D E F G H I J K L M N O P Q R S T U V W X Y Z

Dan Sartain - Gun Vs Knife tab

     Song: Gun Vs. Knife
     Band: Dan Sartain
     Of the Album: Join Dan Sartain
                                                     Tabed By: Max

Well the whole song is pretty much jsut one riff, with some chords thrown in. Please 
farely- this is my first Tab!

Main Riff:
e-----------------------------------------|
B-----------------------------------------|
G-----------------------------------------|
D-----------------------------------------|
A-----------------------------------------|
E---1-4-1-4-1-4-1   F chord       Repeat--| X2

e-----------------1-------------|
B-----------------1-------------|
G-----------------2-------------|
D-----------------3-------------|
A-----------------3-6-4-3-1--1--|
E---1-4-1-4-1-4-1-1---------4---|        Thats Pretty much the Riff played through the enitre song.

The Verses are jsut an F Chord played rather 'strummy' and fast

Chorus:

  Am                         C                           F
e-4------------------------------------------------------1----------|
B-4------------------------------------------------------1----------|
G-5--------------------------5---------------------------2----------|
D-6--------------------------5---------------------------3----------|
A-6--------------------------3---------------------------3----------|
E-4------------------------------------------------------1----------|
(Strumming Chords Rather Fast)
"But I've seen him in my dreams,Now I'm afraid to go to sleep"

   F     (muting strings while still strumming fast)
e--1-----X-X-X-X-X-X-X--------|
B--1-----X-X-X-X-X-X-X--------|
G--2-----X-X-X-X-X-X-X--------|
D--3-----X-X-X-X-X-X-X--------|
A--3-----X-X-X-X-X-X-X--------|
E--1-----X-X-X-X-X-X-X--------|
  "And he's got a vendetta and he thinks he's right..."

Thats the entire song (jsut repeat the entire thing 3 times)

I couldnt find any tabs for all ym favorite Dan Sartain songs anywhere- so i decided to 
my own, Enjoy!
Tap to rate this tab
 
# A B C D E F G H I J K L M N O P Q R S T U V W X Y Z