Song name
# A B C D E F G H I J K L M N O P Q R S T U V W X Y Z

Dan Tyminski - Man Of Constant Sorrow tab

Standard tuning with a capo on 2.

h - hammer on
b - bend string
D - down strum
U - up strum

Intro
e|-----------------------------|
B|-----------------------------|     It helps to already be in
G|-----1-1-----1-0-1-0---------|     the E chord position when
D|-----2-2-----2-0-2-0---------|     doing the hammer on's.
A|-0h2-2-2-0h2-2-0-2-0----0----|
E|-0---0-0-0---0-------3b-0----| x2
       D U     D D D D

Verse
      E chord                  A Chord
e|-------------------------0-0-0-0-0-0-0-0-0--------------------|
B|-------------------------2-2-2-2-2-2-2-2-0--------------------| Don't miss
G|--1-1-1-1-1-1-1-1-1-|----2-2-2-2-2-2-2-2-0--------------------| the 3 on the
D|--2-2-2-2-2-2-2-2-2-|----2-2-2-2-2-2-2-2-0--4-4-4-4-4-4-4-4-0-| low E string
A|--2-2-2-2-2-2-2-2-2-|----0-0-0-0-0-0-0-0-0--2-2-2-2-2-2-2-2-0-| During the E
E|--0-0-0-0-0-0-0-3-0-|x2--0-0-0-0-0-0-0-0-0--2-2-2-2-2-2-2-2-0-| Chord.
    D D D U U D U D U      D D D U U D U D U  D D D U U D U D U

      E chord                  A Chord
e|-------------------------0-0-0-0-0-0-0-0-0---------------------|
B|-------------------------2-2-2-2-2-2-2-2-0---------------------|
G|--1-1-1-1-1-1-1-1-1-|----2-2-2-2-2-2-2-2-0---------------------|
D|--2-2-2-2-2-2-2-2-2-|----2-2-2-2-2-2-2-2-0--4-4-4-4-4-4-4-4-0--|
A|--2-2-2-2-2-2-2-2-2-|----0-0-0-0-0-0-0-0-0--2-2-2-2-2-2-2-2-0--|
E|--0-0-0-0-0-0-0-3-0-|x2--0-0-0-0-0-0-0-0-0--2-2-2-2-2-2-2-2-0--|
    D D D U U D U D U      D D D U U D U D U  D D D U U D U D U

      E chord
e|------------------------------------------|
B|------------------------------------------|
G|--1-1-1-1-1-1-1-1-1-----------------------|
D|--2-2-2-2-2-2-2-2-2---4-4-4-4-4-4-4-4-0---|
A|--2-2-2-2-2-2-2-2-2---2-2-2-2-2-2-2-2-0---|
E|--0-0-0-0-0-0-0-3-0---2-2-2-2-2-2-2-2-0---|
    D D D U U D U D U   D D D U U D U D U

Bridge same as intro
e|-----------------------------|
B|-----------------------------|
G|-----1-1-----1-0-1-0---------|
D|-----2-2-----2-0-2-0---------|
A|-0h2-2-2-0h2-2-0-2-0----0----|
E|-0---0-0-0---0-------3b-0----| x2
       D U     D D D D


After that it goes back into the verse and the song repeats itself
for the rest of the song. I like to break up the verses with a quick
10 second solo i could post if anyone is interested.
Tap to rate this tab
# A B C D E F G H I J K L M N O P Q R S T U V W X Y Z