Song name
# A B C D E F G H I J K L M N O P Q R S T U V W X Y Z

Dan Wilson - She Cant Help Me Now tab

She Can't Help Me Now

Artist: Dan Wilson
Song: She Can't Help Me Now
Album: Free Life


INTRO
=====
                                        1  2  +          1  2  +
    | Em /   /   /   | C  /   /   /   | G  /  C    /   | G  /  C    /   |

    | Em /   /   /   | C  /   /   /   | G  /  C    /   | G  /  C    /   |


VERSE 1
=======

    | Em /   /   /   | C  /   /   /   | G  /  C    /   | G  /  C    /   |
      I   al-  ways    counted on         my love          to carry me

    | Em /   /   /   | C  /   /   /   | G  /  C    /   | G  /  C    /   |
      Al-   ways   depended on           her love     to cover me


PRECHORUS
=========

    | F  /   /   /   | C  /   /   /   | F  /   /   /   | C  /   /   /   |
  And I     always    had someone  who let me play   the lucky one


CHORUS
======

    | Em /   /   /   | C  /   /   /   | G  /  C    /   | G  /  C    /   |
         She   can't   help   me now

    | Em /   /   /   | C  /   /   /   | G  /  C    /   | G  /  C    /   |
         She   can't   help   me now


VERSE 1
=======

    | Em /   /   /   | C  /   /   /   | G  /  C    /   | G  /  C    /   |
      She finds the rooftop door    and climbs out    to clear her head

    | Em /   /   /   | C  /   /   /   | G  /  C    /   | G  /  C    /   |
      I've fallen     through the floor   my line        has gone dead  


PRECHORUS
=========

    | F  /   /   /   | C  /   /   /   | F  /   /   /   | C  /   /   /   |
  And I     always    had someone  who let me play   the lucky one


CHORUS
======

    | Em /   /   /   | C  /   /   /   | G  /  C    /   | G  /  C    /   |
         She   can't   help   me now     (hoo hoo)        (hoo hoo)

    | Em /   /   /   | C  /   /   /   | G  /  C    /   | G  /  C    /   |
         She   can't   help   me now     (hoo hoo)        (hoo hoo)


BRIDGE
======

    Solo is over 8 bars of verse chords.

    (w/slide)
   e|----------------|-----------3----|-7--------------|----------------|
   B|-----------3----|-5--------------|----------------|----------------|
   G|/4--------------|----------------|----------------|-----------2----|
   D|----------------|----------------|----------------|----------------|
   A|----------------|----------------|----------------|----------------|
   E|----------------|----------------|----------------|----------------|

   e|----------------|-----------3----|-10-------------|----------------|
   B|------------3---|-5--------------|----------------|----------------|
   G| 4--------------|----------------|----------------|----------------|
   D|----------------|----------------|----------------|----------------|
   A|----------------|----------------|----------------|----------------|
   E|----------------|----------------|----------------|----------------|


VERSE 3
=======

    | Em /   /   /   | C  /   /   /   | G  /  C    /   | G  /  C    /   |
      I   al-  ways    counted on         my love          to carry me


PRECHORUS
=========

    | F  /   /   /   | C  /   /   /   | F  /   /   /   | C  /   /   /   |
 But now     I can't turn the page     standing all alone    on the stage


CHORUS (double)
======

    | Em /   /   /   | C  /   /   /   | G  /  C    /   | G  /  C    /   |
         She   can't   help   me now     (hoo hoo)        (hoo hoo)

    | Em /   /   /   | C  /   /   /   | G  /  C    /   | G  /  C    /   |
         She   can't   help   me now     (hoo hoo)        (hoo hoo)

    | Em /   /   /   | C  /   /   /   | G  /  C    /   | G  /  C    /   |
         She   can't   help   me now     (hoo hoo)        (hoo hoo)

    | Em /   /   /   | C  /   /   /   | G  /  C    /   | G  /  C    /   |
         She   can't   help   me now     (hoo hoo)        (hoo hoo)

    | G  /  C    /   | G  /  C    /   |
       (hoo hoo) 

!Katie
Tap to rate this tab
# A B C D E F G H I J K L M N O P Q R S T U V W X Y Z