Song name
# A B C D E F G H I J K L M N O P Q R S T U V W X Y Z

Dana Carvey - Choppin Broccoli tab

Tune down half step

You can extend the riff as much as you want to milk laughs. 

       
------------------------------------------|
--------3----------------3----------------|
----4-----4---4------4-----4---4----------|
--4---4-----4------4---4-----4------------|
2----------------0------------------------|
------------------------------------------|




------------------------------------------|
--------3----------------3-----3-----3----|
----4-----4---4------4-----4-----4-----4--|
--4---4-----4------4---4-----4-----4-----4|
------------------------------------------|
3----------------2------------------------|


For the final part, I switch to chords and play as epic a manner as possible. 


----------------------------------------|
----------------------------------------|
-4----2---------------------------------|
-4----2----5-----4----------------------|
-2----0----5-----4----------------------|
-----------3-----2----------------------|
Tap to rate this tab
# A B C D E F G H I J K L M N O P Q R S T U V W X Y Z