Song name
# A B C D E F G H I J K L M N O P Q R S T U V W X Y Z

Dananananaykroyd - Hey Everyone tab

Dananananaykroyd - Hey Everyone 
jjjddd
EADGAe

e|----------------------|
A|-0--0-0-0--0-0--0-0-0-|
G|-7--7-7-7--4/7--7-7-7-| 
D|-x--x-x-x--x-x--x-x-x-|
A|-5--5-5-5--2/5--5-5-5-|
E|----------------------|

e|------------------------------|
A|-0-0--0-0-0---0-0--0--0-0--0--|
G|-4/7--7-9-11--4/7--11-9-7--4--|
D|-x-x--x-x-x---x-x--x--x-x--x--|
A|-2/5--5-7-9---2/5--9--7-5--2--|
E|------------------------------|

e|-------------------------------------------------|
A|------------------9~~----------------------------|
G|--------------9-7-------------------7---9--------|
D|---------7p0-------------------7p0---------------| x3
A|-0h7h9-9-----9-9-9-----0h7h9-9----9---9----------|
E|-------------------------------------------7777--| 
                                             ****
e|---------------------------------------------------|
A|------------------9~~------------------------------|
G|--------------9-7--------------------------0h4-0---|
D|---------7p0-------------------7p0---0h4h5---------|
A|-0h7h9-9-----9-9-9-----0h7h9-9----9----------------|
E|---------------------------------------------------| 

e|----------------------|
A|-0--0-0-0--0-0--0-0-0-|
G|-7--7-7-7--4/7--7-7-7-| 
D|-x--x-x-x--x-x--x-x-x-|
A|-5--5-5-5--2/5--5-5-5-|
E|----------------------|

e|--------------------------------------------------------------------|
A|-0-0--0-0-0---0-0--0--0-0--0----------------------------------------|
G|-4/7--7-9-11--4/7--11-9-7--2----------------------------------------|
D|-x-x--x-x-x---x-x--x--x-x--2-xreally fast until the end of the song-|
A|-2/5--5-7-9---2/5--9--7-5--0----------------------------------------|
E|--------------------------------------------------------------------|
Tap to rate this tab
# A B C D E F G H I J K L M N O P Q R S T U V W X Y Z