Song name
# A B C D E F G H I J K L M N O P Q R S T U V W X Y Z

Dananananaykroyd - Some Dresses tab

-----------------------------------------------------------------------------
                             SOME DRESSES - Dananananaykroyd
-----------------------------------------------------------------------------
Tabbed by: thesherifff
E-mail: usc.agb@gmail.com

Tuning: Standard with B string tuned to A (it seems strange but this is the 
typical tuning for this band)

                                   PM----|
e|---------------------------------------------------------------------------|
B|-------------------------------9----------9--99\---------------------------|
G|------------------------------------------9--99\---------------------------|
D|--4--5-7-5-------7------------9----9999---7--77\---------------------------|
A|--5--5-5-7--- 7/9--9\7-------9-----9999---9--99\---------------------------|
E|----------------------------7------7777------------------------------------|

                              PM----|       
e|---------------------------------------------------------------------------|
B|---------------------------------------------------------------------------|
G|-----------------------44-----------------------7--------------------------|
D|--4--5-7-5------------5---7-5---------------9--9-9-------------------------|
A|--5--5-5-3--*sweep*-3----------5555------/10-10---10-----------------------|
E|-------------------------------3333----------------------------------------|

                                   PM----|
e|---------------------------------------------------------------------------|
B|-------------------------------9----------9--99\---------------------------|
G|------------------------------------------9--99\---------------------------|
D|--4--5-7-5-------7------------9----9999---7--77\---------------------------|
A|--5--5-5-7--- 7/9--9\7-------9-----9999---9--99\---------------------------|
E|----------------------------7------7777------------------------------------|
 
                                   PM--------|       
e|----------------------------------------------+9---------------------------|
B|----------------------------------------------+9---------------------------|
G|----------------------44----------------------+9---------------------------|
D|--4--5-7-5-----------5---7-5------------------+9---------------------------|
A|--5--5-5-3--*sweep*-3---------------55555555--+9---------------------------|
E|------------------------------------33333333--+9---------------------------|

************************************

| /   slide up
| \   slide down
| h   hammer-on
| p   pull-off
| ~   vibrato
| +   harmonic
| x   Mute note
| b   Bend
| pb  Pre-bend
| br  Bend release
| pbr Pre-bend release
| brb Bend release bend

************************************
Tap to rate this tab
# A B C D E F G H I J K L M N O P Q R S T U V W X Y Z