Song name
# A B C D E F G H I J K L M N O P Q R S T U V W X Y Z

Dananananaykroyd - Some Dresses tab

sup
email: jdgilbert@ntlworld.com
tuning standard BUT WITH THE B STRING DOWN ONE STEP
intro: YEAH! CAN YOU SMELL IT IN THE AIR!
e|------------------------------------------------|
A|-----------------------------------9------------|
G|---------------------------------0--------9-9---|
D|-------4--5--7--5------7p0-----0----------------|
A|-------5--5--5--7---7s9------9------------9-9---|
E|---------------------------7----------xxx-7-7---|

e|--------------------------------------------------------|
A|--------------------------------------------------------|
G|-------------------4~-4-2-----------------------7-------|
D|-------4--5--7--5--2~-----5------5-5-----9p0------0-----|
A|-------5--5--5--3--3~------------5-5-5s10----10-----10--|
E|-----------------------------xxx-3-3--------------------|


e|------------------------------------------------|
A|-----------------------------------9------------|
G|---------------------------------0--------9-9---|
D|-------4--5--7--5------7p0-----0----------------|
A|-------5--5--5--7---7s9------9------------9-9---|
E|---------------------------7----------xxx-7-7---|
                                                      
e|---------------------------------------------------5+-----|
A|---------------------------------------------------5+-----|
G|-------------------4~-4-2--------------------------5+-----|
D|-------4--5--7--5--2~-----5------5-5-5-5-5-5-5-5---5+-----|
A|-------5--5--5--3--3~------------5-5-5-5-5-5-5-5---5+-----|
E|---------------------------------3-3-3-3-3-3-3-3---5+-----|
                                   * * * * * * * *
verse
e|------------------------------------------------|
A|-----------------------------------9------------|
G|---------------------------------0--------9-9---|
D|-------4--5--7--5------7p0-----0----------------|
A|-------5--5--5--7---7s9------9------------9-9---|
E|---------------------------7----------xxx-7-7---| (repeat both sections x4)
                                                        
e|--------------------------------------------------------|
A|--------------------------------------------------------|
G|-------------------4~-4-2-----------------------7-------|(this bit changes 
D|-------4--5--7--5--2~-----5------5-5-----9p0------0-----| 4th time)
A|-------5--5--5--3--3~------------5-5-5s10----10-----10--|
E|-----------------------------xxx-3-3--------------------|

fourth time pre-chorus

e|---------------------------------------------------------|
A|---------------------------------------------------------|
G|-------------------4~-4-2--------------------------------|
D|-------4--5--7--5--2~-----5------5-5-5-5-5-5-5-5-5-5-5-5-|
A|-------5--5--5--3--3~------------5-5-5-5-5-5-5-5-5-5-5-5-|
E|---------------------------------3-3-3-3-3-3-3-3-3-3-3-3-|
                                   * * * * * * * * * * * *
Chorus
e|---------------------------------------------------------|
A|---------------------------------------------------------|
G|-11-11-12-14--14-14-12-11--11-11-11-11--12-12-12-12-14---|
D|---------------------------------------------------------|
A|-9--9--10-12--12-12-10-9---9--9--9--9---10-10-10-10-12---|
E|---------------------------------------------------------|

e|------------------------------------------------|
A|------------------------------------------------|
G|-11-11-12-14--14-14-12-11--11-11-11-11--6-6-6-6-|
D|------------------------------------------------|
A|-9--9--10-12--12-12-10-9---9--9--9--9---4-4-4-4-|
E|------------------------------------------------|

e|---------------------------------------------------------|
A|---------------------------------------------------------|
G|-11-11-12-14--14-14-12-11--11-11-11-11--12-12-12-12-14---|
D|---------------------------------------------------------|
A|-9--9--10-12--12-12-10-9---9--9--9--9---10-10-10-10-12---|
E|---------------------------------------------------------|

e|------------------------------------|
A|------------------------------------|
G|-11-11-12-12-6-6--4-----------------|
D|------------------------------------|
A|-9--9--10-10-4-4--2-(STRUMVERYFAST)-|
E|------------------------------------|

verse2

e|------------------------------------------------|
A|-----------------------------------9------------|
G|---------------------------------0--------9-9---|
D|-------4--5--7--5------7p0-----0----------------|
A|-------5--5--5--7---7s9------9------------9-9---|
E|---------------------------7----------xxx-7-7---|

e|--------------------------------------------------------|
A|--------------------------------------------------------|
G|-------------------4~-4-2-----------------------7-------|
D|-------4--5--7--5--2~-----5------5-5-----9p0------0-----|
A|-------5--5--5--3--3~------------5-5-5s10----10-----10--|
E|-----------------------------xxx-3-3--------------------|

e|------------------------------------------------|
A|-----------------------------------9------------|
G|---------------------------------0--------9-9---|
D|-------4--5--7--5------7p0-----0----------------|
A|-------5--5--5--7---7s9------9------------9-9---|
E|---------------------------7----------xxx-7-7---|

e|--------------------------------------------------------|
A|--------------------------------------------------------|
G|-------------------4~-4-2-----------------------7-------|
D|-------4--5--7--5--2~-----5------5-5-----9p0------0-----|
A|-------5--5--5--3--3~------------5-5-5s10----10-----10--|
E|-----------------------------xxx-3-3--------------------|

e|------------------------------|
A|-12-12-12-10-9--5--9--9--9----|
G|-14-14-14-12-11-7-11-11-11----|
D|------------------------------|
A|------------------------------|
E|------------------------------|

e|-------------------------------|
A|-12-12-12-10-9--5-7-7-7--------|
G|-14-14-14-12-11-7-9-9-9--------|
D|-------------------------------|
A|-------------------------------|
E|-------------------------------|

e|-------------------------------|
A|-12-12-12-10-9--5--9--9--9-7-7-|
G|-14-14-14-12-11-7-11-11-11-9-9-|
D|-------------------------------|
A|-------------------------------|
E|-------------------------------|

e|-------------------------------|
A|-12-12-12-10-9--5-7-7-7--------|
G|-14-14-14-12-11-7-9-9-9--------|
D|-------------------------------|
A|-------------------------------|
E|-------------------------------|

I'm getting lazy so go back to chorus

then:

(!IMPROVISED NOISE!)

then:
WALL OF CUDDLES

e|-----------------------------------------|
A|-------------5---2-2-----9-----5---------|
G|-----2p0---0---2-4-4--------------2------|
D|-2s4-----4-----0-0-0-----------------5-5-| add harmonic 2nd time
A|-------------------------------------2-2-|
E|---------------------7-7-7-3-3-3--2------|

e|-----------------------------------------------|
A|-------------5---2-2---------------------------|
G|-----2p0---0---2-4-4-----------------6-6-6-6-6-|
D|-2s4-----4-----0-0-0-5-5-5-5-5-5-5-5-7-7-7-7-7-| 
A|---------------------5-5-5-5-5-5-5-5-0-0-0-0-0-|
E|---------------------3-3-3-3-3-3-3-3-----------| REPEAT

e|--------| and just keep strumming this with pm till it changes
A|--------|
G|--------|
D|-9------| 
A|-9------|
E|-7------|

THEN 

e|-----------------------------------------------------| 
A|-----------------------------------------------------|
G|----------------------11-----------------------------|
D|-------------------9-----9--12-12-12-12-12-12-12-12--| 
A|-12-12-12-10-9---------------------------------------|
E|-7--7--7--7--7-7-7-7--7--7--7--7--7--7--7--7--7--7---|

e|-----------------------------------------------------| 
A|-----------------------------------------------------|
G|----------------------11-----------------------------|
D|-------------------9-----9--12-12-12-12-12-12-12-12--| 
A|-12-12-12-10-9---------------------------------------|
E|-7--7--7--7--7-7-7-7--7--7--7--7--7--7--7--7--7--7---|

e|-----------------------------------------------------------------------| 
A|-----------------------------------------------------------------------|
G|---------------------------------------------------9-9-9-9-11-11-11-11-|
D|----------9------------------------------------------------------------| 
A|-12-12-12----12-10-9-9-9-9-9-9-9-9-7-7-7-7-7-7-7-7-7-7-7-7-9--9--9--9--|
E|-7--7--7--7--7--7--7-7-7-7-7-7-7-7-0-0-0-0-0-0-0-0---------------------|

e|--------| and just keep strumming this with pm till it changes
A|--------|
G|--------|
D|-9------| 
A|-9------|
E|-7------|

e|-----------------------------------------------------| 
A|-----------------------------------------------------|
G|----------------------11-----------------------------|
D|-------------------9-----9--12-12-12-12-12-12-12-12--| 
A|-12-12-12-10-9---------------------------------------|
E|-7--7--7--7--7-7-7-7--7--7--7--7--7--7--7--7--7--7---|

e|-----------------------------------------------------| 
A|-----------------------------------------------------|
G|----------------------11-----------------------------|
D|-------------------9-----9--12-12-12-12-12-12-12-12--| 
A|-12-12-12-10-9---------------------------------------|
E|-7--7--7--7--7-7-7-7--7--7--7--7--7--7--7--7--7--7---|

e|-----------------------------------------------------------------------| 
A|-----------------------------------------------------------------------|
G|---------------------------------------------------9-9-9-9-11-11-11-11-|
D|----------9------------------------------------------------------------| 
A|-12-12-12----12-10-9-9-9-9-9-9-9-9-7-7-7-7-7-7-7-7-7-7-7-7-9--9--9--9--|
E|-7--7--7--7--7--7--7-7-7-7-7-7-7-7-0-0-0-0-0-0-0-0---------------------|

e|--------| and just keep strumming this with pm till it ends
A|--------|
G|--------|
D|-9------| 
A|-9------|
E|-7------|

I haven't checked it so there might be mistakes just putting it up so it's there 
and i'll update it when I get the chance
Tap to rate this tab
# A B C D E F G H I J K L M N O P Q R S T U V W X Y Z