Song name
# A B C D E F G H I J K L M N O P Q R S T U V W X Y Z

Dance Club Massacre - Hoosh Hoosh tab

---------------------------------|
---------------------------------|
---------------------------------|
-7----3------7-------3---------7-|
-7----3------7-------3---------7-|
-7----3------7-------3---------7-|


-------------------------------|
-------------------------------|
-------------------------------|
-----------------------5h8-----|
---------8p5---4h7-6h9-----6h9-|
-000-000-----00----------------|
Tap to rate this tab
 
# A B C D E F G H I J K L M N O P Q R S T U V W X Y Z