Song name
# A B C D E F G H I J K L M N O P Q R S T U V W X Y Z

Dance Gavin Dance - The Robot Vs The Heroin Battle Of Vietnam tab

The Robot Vs The Heroin Battle of Vietnam
By:Dance Gavin Dance
Album:Whatever I Say Is Royal Ocean

I played it in Drop D..

Intro:(i think this part is wrong, just try if it sounds close..)

guitar1:(plays alternately w/ guitar2, just listen to the song..)
 |-4b~---15---15---15b~---15--15--15b~--|
 |-4b~---14---14---14b~---14--14--14b~--|
 |--------------------------------------|
 |--------------------------------------|
 |--------------------------------------|
 |--------------------------------------|

guitar2:
 |----------------------------------|
 |----------------------------------|
 |----------------------------------|
 |----777--77---777----777--77--77--|
 |----777--77---777----777--77--77--|
 |----777--77---777----777--77--77--|

then at(0:07)
guitar1:(im not sure here..)
 |------3---4-3-4-1--|
 |--4-4---4----------|
 |-------------------|
 |-------------------|
 |-------------------|
 |-------------------|

guitar 2:(plays a bit earlier than guitar 1, just listen, ok..?)
 |----------------|
 |----------------|
 |----------------|
 |--777-77-77-77--|
 |--777-77-77-77--|
 |--777-77-77-77--|

then:
guitar1:(alternate again w/ guitar1:)
 |-15b~--15--15---9b~--|
 |-14b~--14--14---8b~--|
 |---------------------|
 |---------------------|
 |---------------------|
 |---------------------|

guitar1:
 |-----------------|
 |-----------------|
 |-----------------|
 |-----77--77--77--|
 |-----77--77--77--|
 |-----77--77--77--|

verse:(0:13)
 |----------------------------------|
 |-10-9---10-9-10-9---10-9-10-9-----|
 |-----9-----------9-----------9----|
 |------10----------10----------10--|  x2
 |----------------------------------| 
 |----------------------------------|
    . . . . . . . . . . . . . . .

 |----------------------------------|
 |-10-9---10-9-10-9---10-9-10-9-----|
 |-----9-----------9-----------9----|
 |------10----------10----------10--|  x2
 |----------------------------------| 
 |----------------------------------|

 |----------------------------------|
 |-10-9---10-9-10-9---10-9-10-9-----|
 |-----9-----------9-----------9----|
 |------10----------10----------10--|  x2
 |----------------------------------| 
 |----------------------------------|
    . . . . . . . . . . . . . . .

 |----------------------------------|
 |-10-9---10-9-10-9---10-9-10-9-----|
 |-----9-----------9-----------9----|
 |------10----------10----------10--|  x2
 |----------------------------------| 
 |----------------------------------|

pre-chorus:(00:36)
guitar1:
 |-11~-----8~-----11~-----8~-----8~-----8~-----8~-----8~-----|
 |-9~---9--9~--9--9~---9--9~--9--9~--9--9~--9--9~--9--9~--9--|
 |-----------------------------------------------------------|
 |-----------------------------------------------------------|  
 |-----------------------------------------------------------| 
 |-----------------------------------------------------------|

guitar2:(plays this sutff throughout whole prechorus, perhaps..)
 |---------------------------------------------------------------------|
 |---------------------------------------------------------------------|
 |-0-0-0-0-0-0-0-0-0-0-0-0-0-0-0-0-0-0-0-0-0-0-0-0-0-0-0-0-0-0-0-0-0-0-|
 |---------------------------------------------------------------------|  
 |---------------------------------------------------------------------| 
 |---------------------------------------------------------------------|

then:(1:00)
guitar1:
 |----3h4-3---3h4-3---3h4-3---3h4-3-11-11-11-----11-11--|
 |-4h6-----4h6-----4h6-----4h6--------------10-10-------|
 |------------------------------------------------------|
 |------------------------------------------------------|  
 |------------------------------------------------------| 
 |------------------------------------------------------|

Chorus:
guitar1:
 |----3h4-3---3h4-3---3h4---3h4-3---3h4-3---3h4--
 |-4h6-----4h6-----4h6---4h6-----4h6-----4h6-----
 |-----------------------------------------------
 |-----------------------------------------------  
 |-----------------------------------------------
 |-----------------------------------------------

continued...
 -11-11-11--------11-11-11--------8-8-------|
 ---------10-10-10--------10-10-10---10-10--|
 -------------------------------------------|
 -------------------------------------------|  x2(continued part only)
 -------------------------------------------| 
 -------------------------------------------|

guitar1(part2):
 |----3h4-3---3h4-3---3h4---3h4-3---3h4-3---3h4--
 |-4h6-----4h6-----4h6---4h6-----4h6-----4h6-----
 |-----------------------------------------------
 |-----------------------------------------------  
 |-----------------------------------------------
 |-----------------------------------------------

continued:(listen to song for timing..)
 |-8-8-8-8-8-(lots of these...)--------8h10h11(lots of times too..---|
 |--6-6-6-6-6------------------(then..)------------------------------|
 |-------------------------------------------------------------------|
 |-------------------------------------------------------------------|
 |-------------------------------------------------------------------|
 |-------------------------------------------------------------------|
 
guitar2:(i agree w/ version 1 of this tab, ill post it here anyway..)
 |----------------------------------|
 |----------------------------------|
 |----------------------------------|
 |-0-8-10-000-000-8888888888888888--| x2
 |-0-8-10-000-000-8888888888888888--|
 |-0-8-10-000-000-8888888888888888--|

post-chorus:(1:29)
guitar1:
 |----------11b~------------|
 |--------------------------|
 |--------------------------|
 |--------------------------|
 |--------------------------|
 |--------------------------|

guitar2:
 |-------------------------|
 |-------------------------|
 |-------------------------|
 |----------7~-------------|
 |----------7~-------------|
 |----------7~-------------|

verse2:(this part is blurry to my ear so it might be wrong..)
 |-11--11--11--11----|
 |---10--10--10--10--|
 |-------------------| x alot of times...
 |-------------------|
 |-------------------|
 |-------------------|

pre-chorus2:
guitar1:
 |-11-11-11-11---11-11-11-11--|
 |-9--9--9--10---9--9--9--10--|
 |----------------------------|
 |----------------------------|
 |----------------------------|
 |----------------------------|

guitar2:(plays after guitar1 plays..)
 |--------|
 |--------|
 |--------|
 |--6666--|
 |--6666--|
 |--6666--|

Chorus:
guitar1:
 |----3h4-3---3h4-3---3h4---3h4-3---3h4-3---3h4--
 |-4h6-----4h6-----4h6---4h6-----4h6-----4h6-----
 |-----------------------------------------------
 |-----------------------------------------------  
 |-----------------------------------------------
 |-----------------------------------------------

continued...
 -11-11-11--------11-11-11--------8-8-------|
 ---------10-10-10--------10-10-10---10-10--|
 -------------------------------------------|
 -------------------------------------------|  x2(continued part only)
 -------------------------------------------| 
 -------------------------------------------|

guitar1(part2):
 |----3h4-3---3h4-3---3h4---3h4-3---3h4-3---3h4--
 |-4h6-----4h6-----4h6---4h6-----4h6-----4h6-----
 |-----------------------------------------------
 |-----------------------------------------------  
 |-----------------------------------------------
 |-----------------------------------------------

continued:(listen to song for timing..)
 |-8-8-8-8-8-(lots of these...)--------8h10h11(lots of times too..---|
 |--6-6-6-6-6------------------(then..)------------------------------|
 |-------------------------------------------------------------------|
 |-------------------------------------------------------------------|
 |-------------------------------------------------------------------|
 |-------------------------------------------------------------------|
 
guitar2:(i agree w/ version 1 of this tab, ill post it here anyway..)
 |----------------------------------|
 |----------------------------------|
 |----------------------------------|
 |-0-8-10-000-000-8888888888888888--| x2
 |-0-8-10-000-000-8888888888888888--|
 |-0-8-10-000-000-8888888888888888--|

bridge:(guitars play alternately, guitar1 plays after guitar 2 plays...)
Guitar2:(those are 11s..)
 |-----------------------------------------------------------------------
 |-----------------------------------------------------------------------
 |-----------------------------------------------------------------------
 |-111111111111--111111--111111111111-111111111111--111111--111111111111-
 |-111111111111--111111--111111111111-111111111111--111111--111111111111-
 |-111111111111--111111--111111111111-111111111111--111111--111111111111-

continued...                 
 -----------------------------|-------------|
 -----------------------------|-------------|
 -----------------------------|-------------|
 -777777--777--777777--777777-|--777-777777-| x2
 -777777--777--777777--777777-|--777-777777-|
 -777777--777--777777--777777-|--777-777777-|
                              (dont include this stuff above on 2nd time..)

guitar1:
 |-------|
 |-------|
 |-------| 
 |-7p6p0-| x15       
 |-------|          
 |-------|          

then this riff...
 |--------------14b~--|
 |--3/11--9-8-9-------|
 |--------------------|
 |--------------------|
 |--------------------|
 |--------------------|

outro:
 |------11-------11--------11-------15-11-|
 |-10-10--10-9-10--10-10-10--10-9-10------|
 |----------------------------------------|
 |----------------------------------------| x4
 |----------------------------------------|
 |----------------------------------------|

end on:
 |--1*--|
 |------|
 |------|
 |------|
 |------|
 |------|

that's all....
im not sure on some parts, specially the intro stuff...
^^
update it later for improvements...


Tap to rate this tab
# A B C D E F G H I J K L M N O P Q R S T U V W X Y Z