Song name
# A B C D E F G H I J K L M N O P Q R S T U V W X Y Z

Dance Gavin Dance - Alex English tab

Guitar 1 - Zac (right earphone)

e||------------------------------------------------------------------------|
B||---9---9---9---9---9---9---10---10---9---9---9---9---7---7---7---7------|
G||-6---6---6---6---6---6---6----6----6---6---6---6---6---6---6---6--------|
D||------------------------------------------------------------------------|
A||------------------------------------------------------------------------|
D||------------------------------------------------------------------------|

  then 2nd time through play:
e||------------------------------------------------------------------------|
B||---9---9---9---9---9---9---10---10---9---9---9---9---7(~)---------------|
G||-6---6---6---6---6---6---6----6----6---6---6---6---6-6(~)---------------|
D||------------------------------------------------------------------------|
A||------------------------------------------------------------------------|
D||------------------------------------------------------------------------|
                                                       (~) = (let ring)

Guitar 2 - Will (left earphone) (00.09 secs.)

e||----9-12h14---------------7-----------------4p0-7p0--------4p0--7/9-----|
B||--9----------12h14~-----------9-7-7h9-------------------------------7h9-|
G||6--------------------6--9---6-------------9--------------9--------------|
D||--------------------------------------7-9------------7-9----------------|
A||------------------------------------------------------------------------|
D||------------------------------------------------------------------------|

Rest of the band enter  (00.19 secs.)
Guitar 1 - Zach:

e||-----------------------------7------------------------------------------|
B||-------------------------------5\4--------------------------------------|
G||--444444444------444444444----------444444444-----(Something goes Here!)|
D||--666666666------666666666----------666666666------(Help Me Find What)--|
A||--444444444------444444444----------444444444---------( Goes Here! )----|
D||------------------------------------------------------------------------|

Then I dont know much from here :/ If get's pretty hard to work out
I'm not even sure this is right but it seems accurate?! 
Anyway... Good Song, Good Band 
Tap to rate this tab
 
# A B C D E F G H I J K L M N O P Q R S T U V W X Y Z