Song name
# A B C D E F G H I J K L M N O P Q R S T U V W X Y Z

Dance Gavin Dance - Hot Water On Wool tab

Help us improve GuitareTab! Take a short survey!
Zacs Groove :P (right earphone) 

e--------------------------------------------------------------------------|
B--------------------------------------------------------------------------|
G-----2-1-------------2-1~------------------2-1--2/4--4/6-------2-1~-------|
D-2h4------2/4---2h4------------2-4----2h4-----------------2h4----------2-4|
A----------------------------2h4-------------------------------------2h4---|
D--------------------------------------------------------------------------|


e----------------------------------------------------------------5-7--9p7--5h7p5-------7-10/14-|
B--------------------------------------------------------5---5-7------------------7/10---------|
G-----2-1------------2-1~------------------2-1--2/4--4/6---6-----------------------------------|
D-2h4------2/4---2h4------------2-4----2h4-----------------------------------------------------|
A----------------------------2h4---------------------------------------------------------------|
D----------------------------------------------------------------------------------------------|


e--------------------------------------------------------------------------|
B--------------------------------------------------------------------------|
G-----2-1-------------2-1~------------------2-1--2/4--4/6-------2-1~-------|
D-2h4------2/4---2h4------------2-4----2h4-----------------2h4----------2-4|
A----------------------------2h4-------------------------------------2h4---|
D--------------------------------------------------------------------------|


Thats all I have tried to figure out, but its really fun to play along so...
Have Fun!
Related for Hot Water On Wool tab