Song name
# A B C D E F G H I J K L M N O P Q R S T U V W X Y Z

Dance Gavin Dance - People You Know tab

I put it in Guitar Pro. Sounds really good to me.

You should be able to figure out the rest of the song though, it's mostly just octaves. 
if you want me to tab out the rest I might.


     E  S S S  S S S S S S S S S S S    E  S  S S  S  S S S S S S S S S S
E||----------------------------------|------------------------------------|
B||----------------------------------|--------------------6-5---6---5-----|
G||----------------------------5-----|------------------7-----7---------5-|
D||----------------------7-5-----7---|----------5h-7h-8-----------7---7---|
A||-------8---10-----7-------8-----8-|-----7h-8---------------------------|
D||--0--0---0----0-7---0-------------|--8---------------------------------|


  E  S S S  S S S S S S S S S S S    E  S  S S  S  S S S S Q.
----------------------------------|-------------------------------|
----------------------------------|--------------------6-5--------|
----------------------------5-----|------------------7-----7------|
----------------------7-5-----7---|----------5h-7h-8--------------|
-------8---10-----7-------8-----8-|-----7h-8----------------------|
--0--0---0----0-7---0-------------|--8----------------------------|

h - Hammer-on
E - 8th note
S - 16th note
Q - Quarter note (. means added half)
Tap to rate this tab
# A B C D E F G H I J K L M N O P Q R S T U V W X Y Z