Song name
# A B C D E F G H I J K L M N O P Q R S T U V W X Y Z

Dance Gavin Dance - Tree Village tab

------------------------------------------------------------------------------
			     Tree Village - DGD
-------------------------------------------------------------------------------
Tabbed by: Jayisthedank	
Email: Julesdurel@gmail.com	


Tuning: E

e|---------------------------------------------------------------------------|
B|----7---7b---/(12)--12---------7/8\(7)-7---7b---/(12)--12-------7/8--------|
G|---0---------------0-------0----------0---------------0-------0------------|
D|--5--------------10-------4-4--------5--------------10-------4-4-----------|
A|-7-----------/-12-----12\5----------7-----------/-12-----12\5--------------|
E|---------------------------------------------------------------------------|


| /  slide up
| \  slide down
| h  hammer-on
| p  pull-off
| ~  vibrato
| +  harmonic
| x  Mute note
===============================================================================
Tap to rate this tab
# A B C D E F G H I J K L M N O P Q R S T U V W X Y Z