Song name
# A B C D E F G H I J K L M N O P Q R S T U V W X Y Z

Dance Gavin Dance - Strawberry Swisher Part 1 tab

-------------------------------------------------------------------------------
			     Strawberry Swisher pt.1 Intro - DGD
-------------------------------------------------------------------------------
Tabbed by:Jayisthedank		
Email: julesdurel@gmail.com

Here is the link to my video for this -
http://www.youtube.com/watch?v=_gLoHHSwwZU&feature=channel_page


Tuning: E

e||------------------3----------------------3---------------------------------|
B||'--------------------4p(3)-1~-----1~---------------------------------------|
G||--3~-----3~----------3~~~--2~-----2~---------------------------------------|
D||-----5~--5~-----5-------------3~-------------------------------------------|
A||'-----5------------------------3------1-----1/3----------------------------|
E||---------------------------------------------------------------------------|

e|-------------------3----------------------3-------5------------------------||
B|----------------------4p(3)-1~-----1~-------------------------------------'||
G|---3~-----3~----------3~~~--2~-----2~--------------------------------------||
D|------5~--5~-----5-------------3~------------------------------------------||
A|-------5------------------------3------1-----1/3--------------------------'||
E|---------------------------------------------------------------------------||




| /  slide up
| \  slide down
| h  hammer-on
| p  pull-off
| ~  vibrato
| +  harmonic
| x  Mute note
===============================================================================
Tap to rate this tab
# A B C D E F G H I J K L M N O P Q R S T U V W X Y Z