Song name
# A B C D E F G H I J K L M N O P Q R S T U V W X Y Z

Dance Gavin Dance - Powder To The People tab

-------------------------------------------------------------------------------
			     Powder to the People - Dance Gavin Dance
-------------------------------------------------------------------------------
Tabbed by: JordanSn
Dance Gavin Dance
Powder to the People
This is my first tab. It sounds pretty decent i guess. Please rate and comment and let 
know what you think. this is just the intro

Tuning: Drop D

    1  &  2  &  3  & 4 &    1  &  2  &  3  &  4  &
e|----16----16----16-----|-16----16----16-------16----------| keep
B|-14----12------------14|----12----------------------------| repeating
G|-------------13---13---|----------13----13----------------| until it
D|-----------------------|-------------------16-------------| stops.
A|-----------------------|----------------------------------|
D|-----------------------|----------------------------------|

THANK YOU. PLEASE RATE.


===============================================================================
Tap to rate this tab
# A B C D E F G H I J K L M N O P Q R S T U V W X Y Z