Song name
# A B C D E F G H I J K L M N O P Q R S T U V W X Y Z

Dance Gavin Dance - Attack Of The Dashing Young And Bold tab

Attack Of The Dashing Young And Bold by Dance Gavin Dance

There was another tab for this where the intro was not quite right, 
anyway this is the way i play the intro.

Standard Tuning

Rhythm is first played clean

|---------------------------------------------------------------------|
|---------------------------------------------------------------------|
|---------------------------------------------------------------------|
|--9--9---9--9---9--9---9--9---9--9--9--9-7-7--7-7--7-7--4-4--4-4-4-4-|
|-10-10--10-10--10-10--10-10--10-10-10-10-9-9--9-9--9-9--5-5--5-5-5-5-|
|--8--8---8--8---8--8---8--8---8--8--8--8-7-7--7-7--7-7--3-3--3-3-3-3-|

After played twice the lead comes in, both guitars heavily distorted

|------------12-12-12------------12-12-12-|
|-12-12---------------12-12---------------|
|--------12------------------12-----------|
|-----------------------------------------|
|-----------------------------------------|
|-----------------------------------------|

Fun to play, even if it is just the intro :)

Please comment and rate!
Tap to rate this tab
# A B C D E F G H I J K L M N O P Q R S T U V W X Y Z